Log in

One click and you are in

Login with Facebook Login with Google

Why sign up and log in

Guitar Tabs Explorer
John Anderson bass tabs for Swingin

Bass tabs

Tuning: Standard (E A D G)

Difficulty: Novice


Intro:
G|---------------------------------|----------------|
D|---------------------------------|----------------|
A|---------------------------------|-7-------7------|
E|-7-7-7-7-7-7-7-6-5-5-5-5-5-5-5-5-|-----7-------7--|
Verse:
There's a little girl...
G|-------------------------------|--------------------------------|
D|-------------------------------|--------------------------------|
A|-7-------7-------7-------7-----|--7-------7-------7-------7-----|
E|-----7-------7-------7-------7-|------7-------7-------7-------7-|

G|-------------------------------|----------------------------------|
D|-------------------------------|----------------------------------|
A|-7-------7-------7-------7-----|--7-------7-------7-------7-------|
E|-----7-------7-------7-------7-|------7-------7-------7-------7-6-|


Chorus:
Just a swingin'...
G|-----------------------------------|--------------------------------|
D|-----------------------------------|--------------------------------|
A|----4/7-7-----4/7-7------7-------7-|--------------------------------|
E|-5---------5---------0-------0-----|--7---7---7---7-6-5---5---5---5-|

G|----------------|
D|----------------|
A|-7-------7------|
E|-----7-------7--|

Organ Solo:
G|-------------------------------|----------------------------------|
D|-------------------------------|----------------------------------|
A|-7-------7-------7-------7-----|--7-------7-------7-------7-------|
E|-----7-------7-------7-------7-|------7-------7-------7-------7-6-|


Chorus:
Just a swingin'...
G|-----------------------------------|--------------------------------|
D|-----------------------------------|--------------------------------|
A|----4/7-7-----4/7-7------7-------7-|--------------------------------|
E|-5---------5---------0-------0-----|--7---7---7---7-6-5---5---5---5-|

G|----------------|
D|----------------|
A|-7-------7------|
E|-----7-------7--|


Verse:
Now Charlotte...
G|-------------------------------|----------------------------------|
D|-------------------------------|----------------------------------|
A|-7-------7-------7-------7-----|--7-------7-------7-------7-------|
E|-----7-------7-------7-------7-|------7-------7-------7-------7-6-|


Chorus:
Just a swingin'...
G|-----------------------------------|--------------------------------|
D|-----------------------------------|--------------------------------|
A|----4/7-7-----4/7-7------7-------7-|--------------------------------|
E|-5---------5---------0-------0-----|--7---7---7---7-6-5---5---5---5-|


G|---------------|--------------------------------|
D|---------------|--------------------------------|
A|-7-------7-----|--------------------------------|
E|-----7-------7-|--7---7---7---7-6-5---5---5---5-|


Outro:
G|-------------------------------|--------------------------------|
D|-------------------------------|--------------------------------|
A|-7-------7-------7-------7-----|--7-------7-------7-------7-----|
E|-----7-------7-------7-------7-|------7-------7-------7-------7-|

fade out...

************************************

| /  Slide up

************************************

Almost there ...

Sign in to get your own page with links to favourite songs and more. You are just one click away...

Login with Facebook Login with Google