Search tabs and chords

Search for song, artist or band

Log in

One click and you are in

Login with Facebook Login with Google

Why sign up and log in

Guitar Tabs Explorer
Anderson East guitar tabs for This too shall last

Guitar tabs

Tuning: Standard (E chord diagramEE A chord diagramAA D chord diagramDD G chord diagramGG B chord diagramBB E chord diagramEE)

"THIS TOO WILL LAST" by Anderson East


 Solo/Outro:

  03:08
e|---------------------------------------|-----------------------------------------------|
B|---------------------------------------|---------12------------------------------------|
G|------9--11fb----11rbp9---9~~-11-------|-11fb-------11rbp9--11p9-11fb--11p9----9~~-----|
D|-9h11------------------h11-------------|-----------------------------------h11----h11\-|
A|---------------------------------------|-----------------------------------------------|
E|---------------------------------------|-----------------------------------------------|

e|---------------------------------------------------------------|
B|---------------12------12------12------12-12--12---12----------|
G|----9-11-11fb----11fb----11fb----11fb-(hold bend)--11rb---11~~-|
D|-11------------------------------------------------------------|
A|---------------------------------------------------------------|
E|---------------------------------------------------------------|

e|-------------------------------------------------------------------------------------|
B|-10p9--------------------------------------------------------------------------------|
G|------11p9-12hb-------------9---6-8(p6)------------------------------------------8~~-|
D|---------------h11---11-11----------------------------------------------------9------|
A|----------------------------------------9fbrp7-9fbr---7-7/9--7----------7--9---------|
E|---------------------------------------------------------------9--7--9---------------|

e|---------------------------------------|-----------------------------------------------|
B|-------------12------------------------|--------12-------------------------------------|
G|-------------11fb---11rbp9---9~~-11----|-11fb-----11rb--p9-11p9-11fb-g11rbp9---9~~-----|
D|------9--11--------------(h11)---------|------------------------------------h11----11\-|
A|-9/11----------------------------------|-----------------------------------------------|
E|---------------------------------------|-----------------------------------------------|

e|----------------|
B|----------------|
G|------9----11fb-| to
D|-9-11---11------|  fade
A|----------------|    out...
E|----------------|


************************************

| g    Grace note
|(n)   Ghost note
| h    Hammer-on
| p    Pull-off
| rb   Release Bend
| rbp  Release bend then pull off
| hb   Half-bend
| fb   Full Bend
| /    Slide up
| \    Slide down
| ~    Vibrato

************************************

Almost there ...

Sign in to get your own page with links to favourite songs and more. You are just one click away...

Login with Facebook Login with Google