Log in

One click and you are in

Login with Facebook Login with Google

Why sign up and log in

Guitar Tabs Explorer
Anderson .paak bass tabs for Might be

Bass tabs

Tuning: Standard (E A D G)


Main riff:

G|------------------------------------------------|
D|---5--3----3-5--------------------------4-------|
A|---------5---------------------3--3h5-----------|
E|---------------3-------4-5-3-5------------------|

G|------------------------------------------------|
D|---5--5---3-4-5-------------------------4-------|
A|------------------------------3---3/5-----------|
E|----------------3-----4-5-3-5-------------------|


************************************

| x  Dead note
| h  Hammer-on
| /  Slide up

Almost there ...

Sign in to get your own page with links to favourite songs and more. You are just one click away...

Login with Facebook Login with Google