Log in

One click and you are in

Login with Facebook Login with Google

Why sign up and log in

Guitar Tabs Explorer
Anderson .paak bass tabs for Am i wrong

Bass tabs

Intro:

G|-----------------------|---9-----------------|-----------------------|---9-----------------------|
D|-----------------------|---------------------|-----------------------|---------------------------|
A|-----------------------|-----------xh7---xh7-|-----------------------|-----------x-3-3---x-3-3---| x2
E|---0h5p3-5-3-5---5p3p0-|---------------------|---0h5p3-5-3-5---5p3p0-|---------------------------|
  S S S S E E E E S S E  S S Q.  S S E S E. S S S S E E E E S S E  S S Q.  S S S S S S S S
Verse 1:

G|-----------------------|---9-----------------|-----------------------|---9-----------------------|
D|-----------------------|---------------------|-----------------------|---------------------------|
A|-----------------------|-----------xh7---xh7-|-----------------------|-----------x-3-3---x-3-3---| x4
E|---0h5p3-5-3-5---5p3p0-|---------------------|---0h5p3-5-3-5---5p3p0-|---------------------------|
  S S S S E E E E S S E  S S Q.  S S E S E. S S S S E E E E S S E  S S Q.  S S S S S S S S


Chorus 1:

G|-----------------------|---9-----------------|-----------------------|---9-----------------------|
D|-----------------------|---------------------|-----------------------|---------------------------|
A|-----------------------|-----------xh7---xh7-|-----------------------|-----------x-3-3---x-3-3---| x2
E|---0h5p3-5-3-5---5p3p0-|---------------------|---0h5p3-5-3-5---5p3p0-|---------------------------|
  S S S S E E E E S S E  S S Q.  S S E S E. S S S S E E E E S S E  S S Q.  S S S S S S S S


Bridge:

G|-----------------------|---9-----------------|-----------------------|---9-----------------------|
D|-----------------------|---------------------|-----------------------|---------------------------|
A|-----------------------|-----------xh7---xh7-|-----------------------|-----------x-3-3---x-3-3---| x2
E|---0h5p3-5-3-5---5p3p0-|---------------------|---0h5p3-5-3-5---5p3p0-|---------------------------|
  S S S S E E E E S S E  S S Q.  S S E S E. S S S S E E E E S S E  S S Q.  S S S S S S S S

Chorus 2:

G|-----------------------|---9-----------------|-----------------------|---9-----------------------|
D|-----------------------|---------------------|-----------------------|---------------------------|
A|-----------------------|-----------xh7---xh7-|-----------------------|-----------x-3-3---x-3-3---| x2
E|---0h5p3-5-3-5---5p3p0-|---------------------|---0h5p3-5-3-5---5p3p0-|---------------------------|
  S S S S E E E E S S E  S S Q.  S S E S E. S S S S E E E E S S E  S S Q.  S S S S S S S S


Chorus 3:

G|-----------------------|---9-----------------|-----------------------|---9-----------------------|
D|-----------------------|---------------------|-----------------------|---------------------------|
A|-----------------------|-----------xh7---xh7-|-----------------------|-----------x-3-3---x-3-3---| x2
E|---0h5p3-5-3-5---5p3p0-|---------------------|---0h5p3-5-3-5---5p3p0-|---------------------------|
  S S S S E E E E S S E  S S Q.  S S E S E. S S S S E E E E S S E  S S Q.  S S S S S S S S

Breakdown/Rap:

4 Bars Rest

G|-----------------|-----------------|-----------------|-----------------|
D|-----------------|-----------------|-----------------|-----------------|
A|-----------------|-----------------|-----------------|-----------------|
E|-1-------------3-|---------------3-|-5-------------5-|(5)----------5h7-|
  H    Q.  E  E Q.  Q.  E  H    Q. S S  S E.H    S E.

G|-----------------|-----------------|-----------------|---------------------|
D|-----------------|-----------------|-----------------|---------------------|
A|-----------------|-----------------|-----------------|---------2-2---------|
E|-1-------------3-|---------------3-|-5-------------5-|---5---------5-5p3p0-|
  H    Q.  E  E Q.  Q.  E  H    Q. S S  S E.Q. S S S S S S

G|-----------------|-----------------|-----------------|-----------------|
D|-----------------|-----------------|-----------------|-----------------|
A|-----------------|-----------------|-----------------|-----------------|
E|-1-------------3-|---------------3-|-5-------------5-|(5)----------5h7-|
  H    Q.  E  E Q.  Q.  E  H    Q. S S  S E.H    S E.

G|-----------------|-----------------|-----------------|-------------------|
D|-----------------|-----------------|-----------------|-------------------|
A|-----------------|-----------------|-----------------|---------5h7p5-----|
E|-1-------------3-|---------------3-|-5-------------5-|---5-----------7-5-|
  H    Q.  E  E Q.  Q.  E  H    Q. S S  S E.Q. S E.S S E

G|-----------------|-----------------|-----------------|-----------------|
D|-----------------|-----------------|-----------------|-----------------|
A|-----------------|-----------------|-----------------|-----------------|
E|-1-------------3-|---------------3-|-5-------------8-|(8)------8\3/8---|
  H    Q.  E  E Q.  Q.  E  H    Q. S S  H    E E Q


Chorus 4:

G|-----------------------|---9-----------------|-----------------------|---9-----------------------|
D|-----------------------|---------------------|-----------------------|---------------------------|
A|-----------------------|-----------xh7---xh7-|-----------------------|-----------x-3-3---x-3-3---| x2
E|---0h5p3-5-3-5---5p3p0-|---------------------|---0h5p3-5-3-5---5p3p0-|---------------------------|
  S S S S E E E E S S E  S S Q.  S S E S E. S S S S E E E E S S E  S S Q.  S S S S S S S S

Horn Break:

G|-----------------------|---9-----------------|-----------------------|---9-----------------------|
D|-----------------------|---------------------|-----------------------|---------------------------|
A|-----------------------|-----------xh7---xh7-|-----------------------|-----------x-3-3---x-3-3---| x4
E|---0h5p3-5-3-5---5p3p0-|---------------------|---0h5p3-5-3-5---5p3p0-|---------------------------|
  S S S S E E E E S S E  S S Q.  S S E S E. S S S S E E E E S S E  S S Q.  S S S S S S S S


Chorus 5:

G|-----------------------|---9-----------------|-----------------------|---9-----------------------|
D|-----------------------|---------------------|-----------------------|---------------------------|
A|-----------------------|-----------xh7---xh7-|-----------------------|-----------x-3-3---x-3-3---| x2
E|---0h5p3-5-3-5---5p3p0-|---------------------|---0h5p3-5-3-5---5p3p0-|---------------------------|
  S S S S E E E E S S E  S S Q.  S S E S E. S S S S E E E E S S E  S S Q.  S S S S S S S S


Outro:

G|-----------------------|---9-----------------|-----------------------|---9-----------------------|
D|-----------------------|---------------------|-----------------------|---------------------------|
A|-----------------------|-----------xh7---xh7-|-----------------------|-----------x-3-3---x-3-3---| x2
E|---0h5p3-5-3-5---5p3p0-|---------------------|---0h5p3-5-3-5---5p3p0-|---------------------------|
  S S S S E E E E S S E  S S Q.  S S E S E. S S S S E E E E S S E  S S Q.  S S S S S S S S

***********************************
| /  Slide up
| \  Slide down
| h  Hummer-on
| p  Pull-off
| (n) Ghost note

Almost there ...

Sign in to get your own page with links to favourite songs and more. You are just one click away...

Login with Facebook Login with Google