Log in

One click and you are in

Login with Facebook Login with Google

Why sign up and log in

Guitar Tabs Explorer
And Also The Trees bass tabs for The suffering of the stream

The Suffering Of The Stream bass tab by And Also The Trees

And Also The Trees bass tabs for The suffering of the stream

Bass tabs

-------------------------------------------------------------------------------
        THE SUFFERING OF THE STREAM - And Also The Trees
-------------------------------------------------------------------------------
Tabbed by: SPLAM!
Bassist: Steven Burrows

Tuning: EADG

Into riff:
 1 + 2 + 3 +
G|------------|
D|------------|
A|------------|
E|--------0-3-|
Main riff:
 1 + 2 + 3 + 1 + 2 + 3 +
G|------------|------------|
D|------------|------------|
A|------------|------------|
E|5-555-5-0-3-|1-111-1-0-3-|


Chorus:
 1 + 2 + 3 + 1 + 2 + 3 + 1 + 2 + 3 + 1 + 2 + 3 +
G|2--2--2-----|------------|------------|------------|
D|------------|5--5--5-----|3--3--3-----|2--2--2-----|
A|------------|------------|------------|------------|
E|--------0-3-|--------0-3-|--------0-3-|--------0-3-|


Chorus ending:
 1 + 2 + 3 + 1 + 2 + 3 +
G|------------|------------|
D|------------|------------|
A|------------|------------|
E|5-555/8-0-3-|1-111-1-0-3-|


Bridge (at around 1:49):
 1 + 2 + 3 + 1 + 2 + 3 +
G|------------|------------|
D|------------|------------|
A|3--3--3-----|------------|
E|--------0-3-|1--1--1-0-3-|

| / slide up

ⓘ Bass guitar tab for 'The Suffering Of The Stream' by And Also The Trees, a goth band formed in 1979 from Inkberrow

Almost there ...

Sign in to get your own page with links to favourite songs and more. You are just one click away...

Login with Facebook Login with Google