Log in

One click and you are in

Login with Facebook Login with Google

Why sign up and log in

Guitar Tabs Explorer
And Also The Trees bass tabs for Slow pulse boy

Slow Pulse Boy bass tab by And Also The Trees

And Also The Trees bass tabs for Slow pulse boy

Bass tabs

-------------------------------------------------------------------------------
           SLOW PULSE BOY - And Also The Trees
-------------------------------------------------------------------------------
Tabbed by: SPLAM!
Bassist: Steven Burrows

Tuning: EADG

Strummed riff (first appears at around 2:02)
 1 + 2 + 3 + 4 + 1 + 2 + 3 + 4 + 1 + 2 + 3 + 4 + 1 + 2 + 3 + 4 +
G|----------------|----------------|----------------|----------------|
D|5-555-5---555-7-|3-333-3---333-5-|----------------|--------------3-|
A|----------------|----------------|5-555-5---555-5-|3-333-3---333---| x3
E|----------------|----------------|----------------|----------------|

Then a slide on G:
E|3\

Melodic riff (first appears at around 2:37)
 1 + 2 + 3 + 4 +     1 + 2 + 3 + 4 +
G|----------------|   |----------------|
D|5---------------|   |3---------------|
A|----6-56.-6-5-6-| x4  |----6-56.-6-5-6-| x4
E|----------------|   |----------------|

Keep repeating this pattern until the end of "..filled our veins with frenzy".
After that play the first part of the riff 8 times.


Outro (at the start of "So we chase the explosions...")
 1 + 2 + 3 + 4 + 1 + 2 + 3 + 4 + 1 + 2 + 3 + 4 + 1 + 2 + 3 + 4 +
G|----------------|----------------|----------------|----------------|
D|5---------------|----------------|----------------|----------------|
A|----------------|------------5---|6---------------|L---------------| x2
E|----------------|----------------|----------------|----------------|
 1 + 2 + 3 + 4 + 1 + 2 + 3 + 4 + 1 + 2 + 3 + 4 + 1 + 2 + 3 + 4 +
G|----------------|----------------|----------------|----------------|
D|3---------------|----------------|----------------|----------------|
A|----------------|------------5---|6---------------|L---------------| x2
E|----------------|----------------|----------------|----------------|
 1 + 2 + 3 + 4 + 1 + 2 + 3 + 4 + 1 + 2 + 3 + 4 + 1 + 2 + 3 + 4 +
G|----------------|----------------|----------------|----------------|
D|5---------------|----------------|----------------|----------------|
A|----------------|------------5---|6---------------|L---------------| x2
E|----------------|----------------|----------------|----------------|

| \ slide down
| . dotted note

ⓘ Bass guitar tab for 'Slow Pulse Boy' by And Also The Trees, a goth band formed in 1979 from Inkberrow

Almost there ...

Sign in to get your own page with links to favourite songs and more. You are just one click away...

Login with Facebook Login with Google