Log in

One click and you are in

Login with Facebook Login with Google

Why sign up and log in

Guitar Tabs Explorer
And Also The Trees bass tabs for Shaletown

Bass tabs

00:02
G|---------------------|
D|---------------------|
A|-3--3-3--3-3---------|
E|-------------3-3-3-3-|
01:03
G|---------------------|---------------------|
D|---------------------|---------------------|
A|-3--3-3--3-3---------|-1--1-1--1-1---------|
E|-------------3-3-3-3-|-------------1-1-1-1-|

G|---------------------|---------------------|
D|---------------------|---------------------|
A|-----------5-6-6-6-5-|-3--3-3--3-3---------|
E|-4--4-4--4-----------|-------------3-3-3-3-|


01:52
G|---------------------|---------------------|
D|---------------------|---------------------|
A|-3--3-3--3-3---------|-3--3-3--3-3---------|
E|-------------3-3-3-3-|-------------3-3-3-3-|

G|---------------------|---------------------|
D|---------------------|---------------------|
A|-3--3-3--3-3---------|-3--3-3--3-3---------|
E|-------------3-3-3-3-|-------------3-3-3-3-|


02:02
G|---------------------|
D|---------------------|
A|-3--3-3--3-3---------|
E|-------------3-3-3-3-|


03:03
G|---------------------|---------------------|
D|---------------------|---------------------|
A|-3--3-3--3-3---------|-1--1-1--1-1---------|
E|-------------3-3-3-3-|-------------1-1-1-1-|

G|---------------------|---------------------|
D|---------------------|---------------------|
A|-----------5-6-6-6-5-|-3--3-3--3-3---------|
E|-4--4-4--4-----------|-------------3-3-3-3-|


03:52
G|---------------------|---------------------|
D|---------------------|---------------------|
A|-3--3-3--3-3---------|-3--3-3--3-3---------|
E|-------------3-3-3-3-|-------------3-3-3-3-|

G|---------------------|---------------------|----|
D|---------------------|---------------------|----|
A|-3--3-3--3-3---------|-3--3-3--3-3---------|-3--|
E|-------------3-3-3-3-|-------------3-3-3-3-|----|

ⓘ Bass guitar tab for 'Shaletown' by And Also The Trees, a goth band formed in 1979 from Inkberrow

Almost there ...

Sign in to get your own page with links to favourite songs and more. You are just one click away...

Login with Facebook Login with Google