Log in

One click and you are in

Login with Facebook Login with Google

Why sign up and log in

Guitar Tabs Explorer
And Also The Trees bass tabs for Macbeths head

Macbeths Head bass tab by And Also The Trees

And Also The Trees bass tabs for Macbeths head

Bass tabs

-------------------------------------------------------------------------------
               MACBETH'S HEAD - And Also The Trees
-------------------------------------------------------------------------------
Tabbed by: SPLAM!
Bassist: Steven Burrows

Tuning: EADG


Intro (palm-muted)
 1 + 2 + 3 + 4 +
G|-----------------|
D|-----------------|
A|-----------------|
E|------------14\--|


Main riff (palm-muted)
  1 + 2 + 3 + 4 + 1 + 2 + 3 + 4 +  1 2 3 4 5 6 7
G|-|----------------|----------------|-|--------------|
D|4|------------4-R-|R---------------|7|--4-5-4-------|
A|4|--4-5---7-------|--------4-5---7-|8|L-------7-5---|
E|-|7---------------|----5-7---------|-|--------------|


Chorus (not palm-muted)
  1 + 2 + 3 + 4 + 1 + 2 + 3 + 4 +  1 2 3 4 5 6 7
G|-|----------------|----------------|-|--------------|
D|4|--------5---4---|L-------------5-|7|L-4-5-4-------|
A|4|--4-5-7---------|--------4-5-7---|8|--------7-5---|
E|-|7---------------|----5-7---------|-|--------------|

Almost there ...

Sign in to get your own page with links to favourite songs and more. You are just one click away...

Login with Facebook Login with Google