Log in

One click and you are in

Login with Facebook Login with Google

Why sign up and log in

Guitar Tabs Explorer
Amyl And The Sniffers guitar tabs for Some mutts cant be muzzled

Some Mutts Can't Be Muzzled tab by Amyl And The Sniffers

Amyl And The Sniffers guitar tabs for Some mutts cant be muzzled

Guitar tabs

Tuning: Half-Step Down (A chord diagramEb MajorEb A chord diagramAbAb A chord diagramDbDb A chord diagramGbGb A chord diagramBb majorBb A chord diagramEb MajorEb)


Intro: x4
eb|-----------------|-----------------|-----------------|-----------------|
Bb|-----------------|-----------------|-----------------|-----------------|
Gb|-----------------|-----------------|-----------------|-----------------|
Db|-2---2-2-2-2-2-2-|-2-2-2-2-2-2-7---|-4---4-4-4-4-4-4-|-4-4-4-4-4-4-9---|
Ab|-2---2-2-2-2-2-2-|-2-2-2-2-2-2-7---|-4---4-4-4-4-4-4-|-4-4-4-4-4-4-9---|
Eb|-0---0-0-0-0-0-0-|-0-0-0-0-0-0-5---|-2---2-2-2-2-2-2-|-2-2-2-2-2-2-7---|

eb|------------------|------------------|------------------|-------------------|
Bb|------------------|------------------|------------------|-------------------|
Gb|------------------|-------------12---|-9---9-9-11-9-9-9-|-11-9-9-9-11-9-9-9-|
Db|-5---5-5-5---10---|-7---7-7-7---12---|-9---9-9-11-9-9-9-|-11-9-9-9-11-9-9-9-|
Ab|-5---5-5-5---10---|-7---7-7-7---10---|-7---7-7-7--7-7-7-|-7--7-7-7-7--7-7-7-|
Eb|-3---3-3-3---8----|-5---5-5-5--------|------------------|-------------------|
Bridge:
eb|------------------|-------------------|-----------------|-----------------|
Bb|------------------|-------------------|-----------------|-----------------| x2
Gb|-9---9-9-11-9-9-9-|-11-9-9-9-11-9-9-9-|-5---------------|-7---------------|
Db|-9---9-9-11-9-9-9-|-11-9-9-9-11-9-9-9-|-5---5-5-5-5-5-5-|-7---7-7-7-7-7-7-|
Ab|-7---7-7-7--7-7-7-|-7--7-7-7-7--7-7-7-|-3---5-5-5-5-5-5-|-5---7-7-5-7-7-7-|
Eb|------------------|-------------------|-----3-3-3-3-3-3-|-----5-5-5-5-5-5-|


Verse:
eb|------------------|-------------------|-----------------|-----------------|
Bb|------------------|-------------------|-----------------|-----------------| x4
Gb|-9---9-9-11-9-9-9-|-11-9-9-9-11-9-9-9-|-5---------------|-7---------------|
Db|-9---9-9-11-9-9-9-|-11-9-9-9-11-9-9-9-|-5---5-5-5-5-5-5-|-7---7-7-7-7-7-7-|
Ab|-7---7-7-7--7-7-7-|-7--7-7-7-7--7-7-7-|-3---5-5-5-5-5-5-|-5---7-7-5-7-7-7-|
Eb|------------------|-------------------|-----3-3-3-3-3-3-|-----5-5-5-5-5-5-|

Chorus:
eb|-----------------|-----------------|-----------------|-----------------|
Bb|-----------------|-----------------|-----------------|-----------------| x2
Gb|-5-5-5-----------|-----------------|-7-7-7-----------|-----------------|
Db|-5-5-5-5---5-5-5-|-5-5-5-5-5-5-5-5-|-7-7-7-7---7-7-7-|-7-7-7-7-7-7-7-7-|
Ab|-3-3-3-5---5-5-5-|-5-5-5-5-5-5-5-5-|-5-5-5-7---7-7-7-|-7-7-7-7-7-7-7-7-|
Eb|-------3---3-3-3-|-3-3-3-3-3-3-3-3-|-------5---5-5-5-|-5-5-5-5-5-5-5-5-|

Interlude: x2
eb|-----------------|-----------------|-----------------|-----------------|
Bb|-----------------|-----------------|-----------------|-----------------|
Gb|-----------------|-----------------|-----------------|-----------------|
Db|-2---2-2-2-2-2-2-|-2-2-2-2-2-2-7---|-4---4-4-4-4-4-4-|-4-4-4-4-4-4-9---|
Ab|-2---2-2-2-2-2-2-|-2-2-2-2-2-2-7---|-4---4-4-4-4-4-4-|-4-4-4-4-4-4-9---|
Eb|-0---0-0-0-0-0-0-|-0-0-0-0-0-0-5---|-2---2-2-2-2-2-2-|-2-2-2-2-2-2-7---|

eb|------------------|------------------|------------------|-------------------|
Bb|------------------|------------------|------------------|-------------------|
Gb|------------------|-------------12---|-9---9-9-11-9-9-9-|-11-9-9-9-11-9-9-9-|
Db|-5---5-5-5---10---|-7---7-7-7---12---|-9---9-9-11-9-9-9-|-11-9-9-9-11-9-9-9-|
Ab|-5---5-5-5---10---|-7---7-7-7---10---|-7---7-7-7--7-7-7-|-7--7-7-7-7--7-7-7-|
Eb|-3---3-3-3---8----|-5---5-5-5--------|------------------|-------------------|


Bridge:
eb|------------------|-------------------|-----------------|-----------------|
Bb|------------------|-------------------|-----------------|-----------------| x2
Gb|-9---9-9-11-9-9-9-|-11-9-9-9-11-9-9-9-|-5---------------|-7---------------|
Db|-9---9-9-11-9-9-9-|-11-9-9-9-11-9-9-9-|-5---5-5-5-5-5-5-|-7---7-7-7-7-7-7-|
Ab|-7---7-7-7--7-7-7-|-7--7-7-7-7--7-7-7-|-3---5-5-5-5-5-5-|-5---7-7-5-7-7-7-|
Eb|------------------|-------------------|-----3-3-3-3-3-3-|-----5-5-5-5-5-5-|


Verse:
eb|------------------|-------------------|-----------------|-----------------|
Bb|------------------|-------------------|-----------------|-----------------| x4
Gb|-9---9-9-11-9-9-9-|-11-9-9-9-11-9-9-9-|-5---------------|-7---------------|
Db|-9---9-9-11-9-9-9-|-11-9-9-9-11-9-9-9-|-5---5-5-5-5-5-5-|-7---7-7-7-7-7-7-|
Ab|-7---7-7-7--7-7-7-|-7--7-7-7-7--7-7-7-|-3---5-5-5-5-5-5-|-5---7-7-5-7-7-7-|
Eb|------------------|-------------------|-----3-3-3-3-3-3-|-----5-5-5-5-5-5-|


Chorus:
eb|-----------------|-----------------|-----------------|-----------------|
Bb|-----------------|-----------------|-----------------|-----------------| x2
Gb|-5-5-5-----------|-----------------|-7-7-7-----------|-----------------|
Db|-5-5-5-5---5-5-5-|-5-5-5-5-5-5-5-5-|-7-7-7-7---7-7-7-|-7-7-7-7-7-7-7-7-|
Ab|-3-3-3-5---5-5-5-|-5-5-5-5-5-5-5-5-|-5-5-5-7---7-7-7-|-7-7-7-7-7-7-7-7-|
Eb|-------3---3-3-3-|-3-3-3-3-3-3-3-3-|-------5---5-5-5-|-5-5-5-5-5-5-5-5-|


Solo: x3
eb|-----------------|-----------------|-----------------|-----------------|
Bb|-----------------|-----------------|-----------------|-----------------|
Gb|-----------------|-----------------|-----------------|-----------------|
Db|-2---2-2-2-2-2-2-|-2-2-2-2-2-2-7---|-4---4-4-4-4-4-4-|-4-4-4-4-4-4-9---|
Ab|-2---2-2-2-2-2-2-|-2-2-2-2-2-2-7---|-4---4-4-4-4-4-4-|-4-4-4-4-4-4-9---|
Eb|-0---0-0-0-0-0-0-|-0-0-0-0-0-0-5---|-2---2-2-2-2-2-2-|-2-2-2-2-2-2-7---|

eb|------------------|------------------|------------------|-------------------|
Bb|------------------|------------------|------------------|-------------------|
Gb|------------------|-------------12---|-9---9-9-11-9-9-9-|-11-9-9-9-11-9-9-9-|
Db|-5---5-5-5---10---|-7---7-7-7---12---|-9---9-9-11-9-9-9-|-11-9-9-9-11-9-9-9-|
Ab|-5---5-5-5---10---|-7---7-7-7---10---|-7---7-7-7--7-7-7-|-7--7-7-7-7--7-7-7-|
Eb|-3---3-3-3---8----|-5---5-5-5--------|------------------|-------------------|

Interlude: x2
eb|-----------------|-----------------|-----------------|-----------------|
Bb|-----------------|-----------------|-----------------|-----------------|
Gb|-----------------|-----------------|-----------------|-----------------|
Db|-2---2-2-2-2-2-2-|-2-2-2-2-2-2-7---|-4---4-4-4-4-4-4-|-4-4-4-4-4-4-9---|
Ab|-2---2-2-2-2-2-2-|-2-2-2-2-2-2-7---|-4---4-4-4-4-4-4-|-4-4-4-4-4-4-9---|
Eb|-0---0-0-0-0-0-0-|-0-0-0-0-0-0-5---|-2---2-2-2-2-2-2-|-2-2-2-2-2-2-7---|

eb|------------------|------------------|------------------|-------------------|
Bb|------------------|------------------|------------------|-------------------|
Gb|------------------|-------------12---|-9---9-9-11-9-9-9-|-11-9-9-9-11-9-9-9-|
Db|-5---5-5-5---10---|-7---7-7-7---12---|-9---9-9-11-9-9-9-|-11-9-9-9-11-9-9-9-|
Ab|-5---5-5-5---10---|-7---7-7-7---10---|-7---7-7-7--7-7-7-|-7--7-7-7-7--7-7-7-|
Eb|-3---3-3-3---8----|-5---5-5-5--------|------------------|-------------------|


Outro:
eb|-----------------|-----------------|-----------------|-----------------|
Bb|-----------------|-----------------|-----------------|-----------------|
Gb|-----------------|-----------------|-----------------|-----------------|
Db|-2---------------|-----------------|-----------------|-----------------|
Ab|-2---------------|-----------------|-----------------|-----------------|
Eb|-0---------------|-----------------|-----------------|-----------------|

↓ Add and view comments below ↓

What do you think about this song and these tabs?

Add your comments, questions, rant or a thumbs up below.

Almost there ...

Sign in to get your own page with links to favourite songs and more. You are just one click away...

Login with Facebook Login with Google