Log in

One click and you are in

Login with Facebook Login with Google

Why sign up and log in

Guitar Tabs Explorer
Tori Amos tabs for Past the mission

Guitar tabs

Past the Mission (revision 1.1)
Tori Amos

DISCLAMER : This is a very simple arrangement of the piano melody for the
            guitar (feel free to improve your own way)
INTRO(piano)
     A chord diagramG+G   (sus4)   (sus2)      A chord diagramC majorC         A chord diagramCsus4Csus4  A chord diagramC majorC
e----7-7----8--7-----5-------------------------------|
B----8-8----8--8-----8--8-----8---8--8--8--8---8-----|
G----7-7----7--7-----7--------9---9--9--10-10--9-----|
D-----------------------------10--10-10-10-10--10----|
A----------------------------------------------------|
E-----------------------------8---8--8--8--8---8-----|

     I don't believe...

     A chord diagramG minorGm       A chord diagramEb MajorEb        A chord diagramBb majorBb              A chord diagramFF  (sus4)
e----3---------3---------6--------------8--8-------|
B----3---------4---------6-------------10-10-11-10-|
G----3---------3---------7-------------10-10-------|
D----5---------5---------8-------------10-10-------|
A----5---------6---------8--------------8--8-------|
E----3---------3---------6-------------------------|

     Past the mission...

A chord diagramG+G         A chord diagramC majorC (sus4)
She said...

   A chord diagramDmDm           A chord diagramC majorC           A chord diagramDmDm          A chord diagramC majorC
e---1--1-0------0--0-0-0-0--1--1-0------0-0---|
B---3--3---3-1--1--1-1-1-1--3--3---3-1--1-1---|
G---2--2--------0--0-0-0-0--2--2--------0-0---|
D---0--0--------2--2-2-2-2--0--0--------2-2---|
A---------------3--3-3-3-3--------------3-3---|
E---------------------------------------------|
    Hey         they found...

    A chord diagramDmDm        A chord diagramC majorC A chord diagramFF A chord diagramC majorC
not sure it...
A chord diagramDmDm A chord diagramC majorC A chord diagramDmDm A chord diagramC majorC A chord diagramDmDm A chord diagramC majorC A chord diagramDmDm
A chord diagramC majorC A chord diagramDmDm

     A chord diagramG minorGm         A chord diagramEb MajorEb        A chord diagramBb majorBb            A chord diagramFF  (sus4)
e--------------------------------------------------|
B----3----3-----4----4-----3----3------1-----------|
G-------3---3------3--3-------3---3---------3-2----|
D------5-5---5----5----5-----3------3-----3-----3--|
A----5----5-----6----6-----1-----------3-----------|
E--------------------------------------------------|
     Past the   mission...

Transcribed by Eric Patenaude and David Viens
Flame us at viensd@JSP.UMontreal.CA

Almost there ...

Sign in to get your own page with links to favourite songs and more. You are just one click away...

Login with Facebook Login with Google