Log in

One click and you are in

Login with Facebook Login with Google

Why sign up and log in

Guitar Tabs Explorer
Amarth Amon tabs for With oden on our side

Guitar tabs

Title- With Oden on Our Side

               Artist- Amon Amarth

This is my version of Amon Amarth's "With Oden on Our Side". It's an awesome song and
to play on the guitar. I think it's quite accurate but you can always catch imperfections
mail me at- judas-iscariot@live.com.

Tabbed by- DIII 503

🏷Legend:

"  -  tremolo picking
() -  ghost note

*  -  palm mute
Intro Riff:

1|-----------------------------------------------|
2|-----------------------------------------------|
3|-----------------------------------------------|
4|-----------------2"---------------------4"-----|
5|-2--2-2-2--2-2-2--------2--2-2-2--2-2-2--------|
6|-0--0-0-0--0-0-0--------0--0-0-0--0-0-0--------|
                                                  play twice
1|-----------------------------------------------|
2|-----------------------------------------------|
3|-----------------------------------------------|
4|-----------------0"---------------------0"--4"-|
5|-2--2-2-2--2-2-2--------4--4-4-4--4-4-4--------|
6|-0--0-0-0--0-0-0--------2--2-2-2--2-2-2--------|


Riff 1:

Guitar 1

1|--------------------------------------------------------|
2|--------------------------------------------------------|
3|--------------------------------------------------------|
4|-------------------------7------------7-9-10-9-7-9-7----| play 4 times
5|-7---7-7-9-10-9---9-9-10---10---10-10----------------10-|
6|--------------------------------------------------------|

Guitar 2

1|---------------------------------------------|
2|---------------------------------------------|
3|-----------------------------7-6-4-6-4-2-----|
4|-2------------(2)------------5-4-2-4-2-0-----|
5|-2------------(2)----------------------------|
6|-0------------(0)----------------------------|
                                                play 4 times
1|--------------------------------------------|
2|--------------------------------------------|
3|---------------------------7-6-4-6-4-2------|
4|-4------------2------------5-4-2-4-2-0------|
5|-4------------2-----------------------------|
6|-2------------0-----------------------------|

Guitar 1 plays the same passage

Guitar 2

1|-------------------------------------------------|
2|-------------------------------------------------|
3|-------------------------------------7-6-4-6-4-2-|
4|-------------------------------------5-4-2-4-2-0-|
5|-2-2-2-2-2-2-2-2-2-2-2-2-2-2-2-2-2-2-------------|
6|-0-0-0-0-0-0-0-0-0-0-0-0-0-0-0-0-0-0-------------|

1|-------------------------------------------------|
2|-------------------------------------------------|
3|-------------------------------------7-6-4-6-4-2-|
4|-------------------------------------5-4-2-4-2-0-|
5|-2-2-2-2-2-2-2-2-2-2-2-2-4-4-4-4-4-4-------------|
6|-0-0-0-0-0-0-0-0-0-0-0-0-2-2-2-2-2-2-------------|

Riff 2:

Both guitars

1|-------------------------|
2|-------------------------|
3|-------------------7-6-4-|
4|-------------------5-4-2-|
5|-2-2-2-2-2-2-2-2-2-------|
6|-0-0-0-0-0-0-0-0-0-------|


1|-------------------------|
2|-------------------------|
3|-------------------7-6-4-|
4|-------------------5-4-2-|
5|-2-2-2-2-2-2-2-2-2-------|
6|-0-0-0-0-0-0-0-0-0-------|

1|-------------------------------------------------|
2|-------------------------------------------------|
3|-------------------------------------7-6-4-6-4-2-|
4|-------------------------------------5-4-2-4-2-0-|
5|-4-4-4-4-4-4-4-4-4-4-4-4-5-5-5-5-5-5-------------|
6|-2-2-2-2-2-2-2-2-2-2-2-2-3-3-3-3-3-3-------------|


Riff 3:

Both guitars

1|-------------------------------------------------------|
2|-------------------------------------------------------|
3|-----------------------------------------------7"------|
4|------------7"--9"----------------7"--9"---------------|
5|-7"---10"--------------7"---10"-----------10"-------9"-|
6|-------------------------------------------------------|

1|---------------------|
2|---------------------|
3|---------------------|
4|-------9"---7"-------|
5|-10"-------------5"--|
6|---------------------|


Riff 4:

Guitar 1

1|------------------------------------------|
2|------------------------------------------|
3|------------------------------------5-----|
4|---------5--7-------------5--7------------|
5|-5---8------------5---8---------8-------7-|
6|------------------------------------------|

1|----------------|
2|----------------|
3|----------------|
4|-----7---5------|
5|-8-----------3--|
6|----------------|

Guitar

1|-------------------------------------------|
2|-------------------------------------------|
3|-------------------------------------------|
4|-2-------2-2-2---2---------5-----4---------|
5|-2-------2-2-2---2---------5-----4---------|
6|-0-------0-0-0---0---------3-----2---------|
           * * *

Almost there ...

Sign in to get your own page with links to favourite songs and more. You are just one click away...

Login with Facebook Login with Google