Log in

One click and you are in

Login with Facebook Login with Google

Why sign up and log in

Guitar Tabs Explorer
Amarth Amon tabs for The arrival of the fimbul winter

The Arrival Of The Fimbul Winter tab by Amarth Amon

Amarth Amon tabs for The arrival of the fimbul winter

Guitar tabs with lyrics

Title: The Arrival Of The Fimbul Winter
Album: Sorrow Throughout The Nine Worlds


Listen to the song to get the number of times each riff is played,
rhythm, etc.

Tune down 2 steps to C.....

Excuse any inaccuracies, I'm a beginner at tab.
This is my first tab, and it took me perhaps an accumulated 6-8 hours to do.
I can hear that there are a few mistakes, but I did the best I could, and tabbed
what I think sounded the best in each such situation.
Also, because of the annoying mix that Amon Amarth love to use, I did not tab
any of the harmonies. Stupid guitars bleeding into each other on each channel.

Riff 1
-|----------------|
-|----------------|
-|----------------|
-|----7777--------|
-|7777----5555----|
-|------------8888|


Riff 2
-|-------------------------|
-|-------------------------|
-|--------2-0h2p0----------|
-|----2-4---------5--4-----|
-|2---------------3--2--5--|
-|0---------------------3--|

Riff 3
-|---------------|
-|---------------|
-|---------------|
-|----5---4------|
-|2---3---2--5---|
-|0----------3---|


Riff 4
-|------------------------|
-|------------------------|
-|------------------------|
-|5-5-5-5-4-4-4-4---------|
-|3-3-3-3-2-2-2-2-5-5-5-5-|
-|----------------3-3-3-3-|


Riff 5
-|-------------------------------------------------------------|
-|-------------------------------------------------------------|
-|-------------------------------------------------------------|
-|-------------------------------------------------------------|
-|4--4-4-5-2-2-2-4---4-4-5-2-2-2-5--5-5-5/9-9-9-5--5-5-5/9-9-9-|
-|2--2-2-3-0-0-0-2---2-2-3-0-0-0-3--3-3-3/7-7-7-3--3-3-3/7-7-7-|


Riff 6
-|------------------------------------------------------------------------|
-|------------------------------------------------------------------------|
-|--------------------77779999--------------------------------------------|
-|----7777999910101010--------101010109999----9999101010109999------------|
-|7777------------------------------------7777----------------101010108888|
-|------------------------------------------------------------------------|


Riff 7
-|--------------------|
-|--------------------|
-|--------------------|
-|---------333--------|
-|000000333---22222222|
-|--------------------|


Riff 8 (Play first bar once, then second bar once, then first bar once, then third bar once.)
-|---------------------------------|
-|---------------------------------|
-|------------------9--------------|
-|------------7-----------9-----10-|
-|7-777-7-777---777---777---777----|
-|---------------------------------|


-|---------------------------------|
-|---------------------------------|
-|------------------9--------------|
-|------------7-----------9-----10-|
-|8-888-8-888---888---888---888----|
-|---------------------------------|


-|------------------------------|
-|------------------------------|
-|------------------------------|
-|------------7-----999910101010|
-|7-777-7-777---777-------------|
-|------------------------------|


Riff 9
-|------------------------------------|
-|------------------------------------|
-|------------------------------------|
-|9--9-9-9-9--9-9-9--1112-14-----12-11|
-|7--7-7-7-7--7-7-7--9-10-12-10--10-9-|
-|---------------------------8--------|


Riff 10
-|--------------------------------------|-------------|
-|--------------------------------------|-------------|
-|--------------------*-----------------|-------------|
-|---------------77777------------------|----12-11-9--|
-|777777999101010--------------101010999|10--10-9--7--|
-|--------------------888888888---------|8------------|
 At the star is when you go into the ending of the song. Listen, and hear it.

Almost there ...

Sign in to get your own page with links to favourite songs and more. You are just one click away...

Login with Facebook Login with Google