Log in

One click and you are in

Login with Facebook Login with Google

Why sign up and log in

Guitar Tabs Explorer
Amarth Amon tabs for Once sent from the golden hall

Once Sent From The Golden Hall tab by Amarth Amon

Amarth Amon tabs for Once sent from the golden hall

Guitar tabs with lyrics

Album: Once Sent From the Golden Hall

transcribed by:  Adam Oettmeier  :  odog502@aol.com

Date last modified:  May 25, 2003
Tuning:  Down two steps to A chord diagramC majorC

notation:
^   =  bend [ ^ = half, ^^ = whole, etc. ]
^r  =  bend and release
x   =  mute with fret-hand
*   =  mute with palm-hand
X\\ =  pick slide
h   =  hammer-on
p   =  pull-off
~   =  vibrato
t   =  tap-on
/   =  slide up
\   =  slide down
h.  =  harmonics
ah  =  artificial harmonic
(9) =  ghost note
tm  =  trem picking
tr  =  trill

  Riff 1
  (0:00)
A chord diagramC majorC :---------------------------------------------------|
A chord diagramG+G :---------------------------------------------------|
D#:---------------------------------------------------|
A#:-----------------7---------------------------------|
A chord diagramFF :-------9---------------10--------9-----7-----7--9--|
A chord diagramC majorC :-7--7-----7-7-7-----7------7--7-----7-----7--------|
    *  *     * * *     *      *  *     *     *

  Riff 1 (cont)
A chord diagramC majorC :------------------------------------------------------|
A chord diagramG+G :------------------------------------------------------|
D#:------------------------------------------------------|
A#:-----------------7------------------------------------|
A chord diagramFF :-------9---------------10--------10-----10-----9--10--|
A chord diagramC majorC :-0--0-----0-0-0-----0------0--0------0------0---------|
    *  *     * * *     *      *  *      *      *

  Riff 2
  (0:11)
A chord diagramC majorC :---------------------------|
A chord diagramG+G :---------------------------|
D#:---------------------------|
A#:9-----------------------7--|
A chord diagramFF :9-----------------------7--|
A chord diagramC majorC :7---7-7-7-7-7-7-7-7-7-7-5--|
       * * * * * * * * * *

  Riff 2 (cont)
A chord diagramC majorC :---------------------------|
A chord diagramG+G :---------------------------|
D#:---------------------------|
A#:9-----------------------7--|
A chord diagramFF :9-----------------------7--|
A chord diagramC majorC :7---7-7-7-7-7-7-7-7-7-7-5--|
       * * * * * * * * * *

  Riff 2 (cont)
A chord diagramC majorC :--------------------------------------------------------|
A chord diagramG+G :--------------------------------------------------------|
D#:--------------------------------------------------------|
A#:2-------------------------------------------------------|
A chord diagramFF :2--------------10------10----------10------10------9--10|
A chord diagramC majorC :0--0-0-0-0-0-0-----0-0-----0-0-0-0-----0-0-----0-0------|
      * * * * * *     * *     * * * *     * *     * *

  Riff 3
  (0:30)
A chord diagramC majorC :------------------------------|
A chord diagramG+G :------------------------------|
D#:------------------------------|
A#:9---7-9---7--9----------------|
A chord diagramFF :-----------------10---9-10----|
A chord diagramC majorC :------------------------------|
   tm............................

  Riff 3 (cont)
A chord diagramC majorC :------------------------------|
A chord diagramG+G :------------------------------|
D#:-------------------------9----|
A#:11---9-11---9--11-------------|
A chord diagramFF :------------------------------|
A chord diagramC majorC :------------------------------|
   tm............................

  Riff 4 (played with Riff 3)
  (0:30)
A chord diagramC majorC :------------------------------|
A chord diagramG+G :------------------------------|
D#:------------------------------|
A#:------------------------------|
A chord diagramFF :-----------------7------------|
A chord diagramC majorC :7-----------------------------|
   tm............................

  Riff 4 (cont)
A chord diagramC majorC :------------------------------|
A chord diagramG+G :------------------------------|
D#:------------------------------|
A#:------------------------------|
A chord diagramFF :-----------------9------------|
A chord diagramC majorC :5-----------------------------|
   tm............................

  Riff 5
  (1:20)
A chord diagramC majorC :----------------------------------------------------|
A chord diagramG+G :----------------------------------------------------|
D#:----------------------------------------------------|
A#:----------------------------------------------------|
A chord diagramFF :---9-----9-----9-----9-----10-----10-----10-----10--|
A chord diagramC majorC :7-----7-----7-----7-----7------7------7------7------|
   *     *     *     *     *      *      *      *

  Riff 5 (cont)                 End 1, 2, 3
A chord diagramC majorC :----------------------------|------------------------|
A chord diagramG+G :----------------------------|------------------------|
D#:----------------------------|------------------------|
A#:----------------------------|------------------------|
A chord diagramFF :---10-----10-----10-----10--|---9-----9-----7-----7--|
A chord diagramC majorC :0------0------0------0------|5-----5-----5-----5-----|
   *      *      *      *       *     *     *     *

  Riff 5 (cont)
   End 4
A chord diagramC majorC :------------------------|
A chord diagramG+G :------------------------|
D#:------------------------|
A#:12----------11----------|
A chord diagramFF :------------------------|
A chord diagramC majorC :------------------------|
   tm......................

  Riff 6 (played with Riff 5)
  (1:30)
A chord diagramC majorC :----------------------------------------------------|
A chord diagramG+G :----------------------------------------------------|
D#:----------------------------------------------------|
A#:9---------------------------------------------------|
A chord diagramFF :9---------------------------------------------------|
A chord diagramC majorC :7---------------------------------------------------|

  Riff 6 (cont)                 End 1
A chord diagramC majorC :----------------------------|------------------------|
A chord diagramG+G :----------------------------|------------------------|
D#:----------------------------|------------------------|
A#:2---------------------------|7-----------------------|
A chord diagramFF :2---------------------------|7-----------------------|
A chord diagramC majorC :0---------------------------|5-----------------------|

  Riff 6 (cont)
   End 2
A chord diagramC majorC :------------------------|
A chord diagramG+G :------------------------|
D#:------------------------|
A#:7--7--7--7--7--7--7--7--|
A chord diagramFF :7--7--7--7--7--7--7--7--|
A chord diagramC majorC :5--5--5--5--5--5--5--5--|
   *  *  *  *  *  *  *  *

  Riff 7
  (2:01)                               End 1, 3  End 2, 4
A chord diagramC majorC :------------------------------------|-----|   |-----|
A chord diagramG+G :------------------------------------|-----|   |-----|
D#:------------------------------------|-----|   |-----|
A#:-------------5----------------------|-----|   |-----|
A chord diagramFF :-----5---------------6-------5------|-----|   |-----|
A chord diagramC majorC :3---------3-------3-------3-------3-|6----|   |1----|

  Riff 8 (played with Riff 7)
  (2:01)                               End 1, 3  End 2, 4
A chord diagramC majorC :------------------------------------|-----|   |-----|
A chord diagramG+G :------------------------------------|-----|   |-----|
D#:------------------------------------|-----|   |-----|
A#:5-----------------------------------|8----|   |3----|
A chord diagramFF :5-----------------------------------|8----|   |3----|
A chord diagramC majorC :3-----------------------------------|6----|   |1----|

  Riff 9
  (2:12)
A chord diagramC majorC :--------------------------------------------|
A chord diagramG+G :--------------------------------------------|
D#:--------------------------------------------|
A#:-------------9------------------------------|
A chord diagramFF :-----9---------------10-------9-------------|
A chord diagramC majorC :7---------7-------7--------7-------7--10----|

   Riff 10 (played with Riff 9)
A chord diagramC majorC :--------------------------------------------|
A chord diagramG+G :--------------------------------------------|
D#:--------------------------------------------|
A#:9-------------------------------------7-----|
A chord diagramFF :9-------------------------------------7-----|
A chord diagramC majorC :7-------------------------------------5-----|


The solo has a lot of repitious parts so I will
tab the whole solo except for the repititions.
Im sure you'll know what parts to repeat.
I even divided the solo into "parts" to make it easier.

  Solo Part 1
  (2:41)
A chord diagramC majorC :--------------------------------------------------|
A chord diagramG+G :--------------------------------------------------|
D#:--------------------------------------------------|
A#:7-9--9--9--9-9-7-9--9--9--9-9-9-11--11--11--11-11-|
A chord diagramFF :--------------------------------------------------|
A chord diagramC majorC :--------------------------------------------------|
    h              h              h

  Solo Part 1 (cont)
A chord diagramC majorC :----------------------------------------|
A chord diagramG+G :----------------------------------------|
D#:----------------------------------------|
A#:9-11--11--11--11-11-9-11~---------------|
A chord diagramFF :----------------------------------------|
A chord diagramC majorC :----------------------------------------|
    h                   h

  Solo Part 2
  (3:01)
A chord diagramC majorC :--------------------------------------------|
A chord diagramG+G :12--12--12--10--12--12--10--12--12--10--12--|
D#:--------------------------------------------|
A#:--------------------------------------------|
A chord diagramFF :--------------------------------------------|
A chord diagramC majorC :--------------------------------------------|

  Solo Part 2 (cont)
A chord diagramC majorC :--------------------|
A chord diagramG+G :10--12--10--12--10--|
D#:--------------------|
A#:--------------------|
A chord diagramFF :--------------------|
A chord diagramC majorC :--------------------|

  Solo Part 2 (cont)
A chord diagramC majorC :--------------------------------------------|
A chord diagramG+G :12--12--12--10--12--12--10--12--12--10--12--|
D#:--------------------------------------------|
A#:--------------------------------------------|
A chord diagramFF :--------------------------------------------|
A chord diagramC majorC :--------------------------------------------|

  Solo Part 2 (cont)
A chord diagramC majorC :10--12-10-12-10-12-10----|
A chord diagramG+G :----------------------12-|
D#:-------------------------|
A#:-------------------------|
A chord diagramFF :-------------------------|
A chord diagramC majorC :-------------------------|
         p     p     p

  Solo Part 3
  (3:06)
A chord diagramC majorC :--------------------------------------------|
A chord diagramG+G :14--14--14--12--14--14--12--14--14--12--14--|
D#:--------------------------------------------|
A#:--------------------------------------------|
A chord diagramFF :--------------------------------------------|
A chord diagramC majorC :--------------------------------------------|

  Solo Part 3 (cont)
A chord diagramC majorC :12--14-12-14-12-14-12----|
A chord diagramG+G :----------------------12-|
D#:-------------------------|
A#:-------------------------|
A chord diagramFF :-------------------------|
A chord diagramC majorC :-------------------------|
         p     p     p

  Solo Part 4
  (3:11)
A chord diagramC majorC :14-------14-------14----|
A chord diagramG+G :---12-12----12-12----12-|
D#:------------------------|
A#:------------------------|
A chord diagramFF :------------------------|
A chord diagramC majorC :------------------------|

  Solo Part 5
  (3:16)
A chord diagramC majorC :--------------------------------------------------------|
A chord diagramG+G :15^--15-17-15--14-17-14------15-------------------------|
D#:-------------------------17------18--14--16-14-16-14----|
A#:-----------------------------------------------------17-|
A chord diagramFF :--------------------------------------------------------|
A chord diagramC majorC :--------------------------------------------------------|
          h  p      h  p                      p     p

  Solo Part 5 (cont)
A chord diagramC majorC :----------------------------------------------------|
A chord diagramG+G :----------------------------------------------------|
D#:14--------------------------------------------------|
A#:----18--15--17-15-17-15-----14--16--17--14--16--17--|
A chord diagramFF :------------------------18--------------------------|
A chord diagramC majorC :----------------------------------------------------|
                 p     p

  Solo Part 5 (cont)
A chord diagramC majorC :-----------------------------------------------------|
A chord diagramG+G :-----------------------------------------------------|
D#:14------14--16--14--16--14--16--14--16--14--16~------|
A#:----17-----------------------------------------------|
A chord diagramFF :-----------------------------------------------------|
A chord diagramC majorC :-----------------------------------------------------|

  Riff 11 (played with solo)
  (2:41)
A chord diagramC majorC :-----------------------------------------------------|
A chord diagramG+G :-----------------------------------------------------|
D#:-----------------------------------------------------|
A#:9--------9--------7--------7-------11----------------|
A chord diagramFF :9--------9--------7--------7-------11----------------|
A chord diagramC majorC :7--------7--------5--------5--------9----------------|

  Riff 12 (played with solo)
  (3:01)
A chord diagramC majorC :-----------------------------------------------------|
A chord diagramG+G :-----------------------------------------------------|
D#:-----------------------------------------------------|
A#:-----------------------------------------------------|
A chord diagramFF :-----------------------------------------------------|
A chord diagramC majorC :7-----------------5-----------------9----------------|
   tm...................................................

  Riff 13
  (3:51)
A chord diagramC majorC :-----------------------------------------------------|
A chord diagramG+G :-----------------------------------------------------|
D#:-----------------------------------------------------|
A#:--------------------------------------9--------------|
A chord diagramFF :10--9--7-----------10--9--7-----------9--------------|
A chord diagramC majorC :----------10--7--------------10--7----7--------------|

Almost there ...

Sign in to get your own page with links to favourite songs and more. You are just one click away...

Login with Facebook Login with Google