Log in

One click and you are in

Login with Facebook Login with Google

Why sign up and log in

Guitar Tabs Explorer
Amarth Amon tabs for For the stabwounds in our backs

For The Stabwounds In Our Backs tab by Amarth Amon

Amarth Amon tabs for For the stabwounds in our backs

Guitar tabs

B-Tuning (A chord diagramBB A chord diagramE MajorE A chord diagramA augmentedA A chord diagramD MajorD A chord diagramF#F# b) Low to High


Intro (0:00)
 Guitar 1
|-------------------------------------------------|
|-------6--5---------6--5-------------------------|
|-------------------------------------------------|
|----7--------7----7-------7----5-7--7----5-7--7--|   x4
|--5-------------5------------0---------0---------|
|-------------------------------------------------|


 Guitar 2
|-------------------------------------------------|
|-------------------------------------------------|
|--7-------------7---------5----------------------|
|--7-------------7------7--5--7-------------------|   x4
|--5-------------5------7--3--7-------------------|
|-----------------------5-----5-------------------|


(0:40)

 Guitar 1 only
|----------------------------------------------|
|----------------------------------------------|
|----------------------------------------------|
|----------------------------------------------|
|--7-7-7-7-7-7-7-7-7-7-7-7-7-7-7-7-------------|   x1
|--5-5-5-5-5-5-5-5-5-5-5-5-5-5-5-5-------------|
   . . . . . . . . . . . . . . . .

 Guitars 1 & 2
|----------------------------------------------|
|----------------------------------------------|
|----------------------------------------------|
|----------------------------------------------|
|--7-7-7-7-7-7-7-7-7-7-7-7-7-------------------|   x1
|--5-5-5-5-5-5-5-5-5-5-5-5-5-------------------|
   . . . . . . . . . . . . .


(0:46)

 Guitars 1 & 2
|--------------------------------------------------|
|--------------------------------------------------|
|--------------------------------------------------|
|-----2--5--4-----2-----------2--5--4--------------|   x4
|--2-----------5-----3--3--2-----------5--5--3--3--|
|--------------------------------------------------|


(1:06)
(Note: The 1st & 2nd time endings are trem. picked VERY quickly)

                            1st time        2nd time
|--------------------------|---------------|---------------|
|--------------------------|---------------|--1"-3"-1"-0"--|
|------5"--4"--0"--2"------|-----0"--------|---------------|
|----------------------3"--|--3"----3"-2"--|---------------|   x2
|--0"----------------------|---------------|---------------|
|--------------------------|---------------|---------------|


(Repeat Part at 0:46)
(Repeat Part at 1:06)


(2:06)
(Play (*) twice, then (**) twice)

 *                          **
|--------------------------|-----------------------|
|--------6--5--------------|-----------------------|
|-----7-----------5--------|--7-9---------7-9-9-9--|
|--7-----------7-----8--8--|--5-7---------5-7-7-7--|   x4
|--------------------------|------7-7-7-7----------|
|--------------------------|------5-5-5-5----------|
                                  . . . .


(2:47)
(Repeat Part at 0:46)
(Repeat Part at 1:06)


 (3:27)
|--------------------------------------------------|
|--------------------------------------------------|
|--------------------------------------------------|
|----------5"-----------5"-------------------------|
|-------7"----7"-----7"----7"----------------------|
|--0"------------0"-----------8"----5"----3"-------|


(4:08)
(Repeat Intro)


END

Almost there ...

Sign in to get your own page with links to favourite songs and more. You are just one click away...

Login with Facebook Login with Google