Log in

One click and you are in

Login with Facebook Login with Google

Why sign up and log in

Guitar Tabs Explorer
Amarth Amon tabs for Doom over dead man

Guitar tabs with lyrics

Amon Amarth


Duration 🏷Legend
---------------
W - whole
H - half
Q - quarter
A chord diagramE MajorE - 8th
S - 16th
T - 32nd
X - 64th
. - note dotted
|-n-|  - n-tuplets
Tablature 🏷Legend
----------------
L - tied note
x - dead note
g - grace note
(n) - ghost note
> - accentuded note
NH - natural harmonic
AH - artificial harmonic
TH - tapped harmonic
SH - semi harmonic
PH - pitch harmonic
h - hammer on
p - pull off
b - bend
br - bendRelease
pb - preBend
pbr - preBendRelease
brb - bendReleaseBend
\n/ - tremolo bar dip
\n - tremolo bar dive
-/n - tremolo bar Release up
/n\ - tremolo bar inverted dip
/n - tremolo bar return
-\n - tremolo bar Release down
S - shift slide
s - legato slide
/ -  slide into from below or out of upwards
\ -  slide into from above or out of downwards
~ - vibrato
W - wide vibrato
tr - trill
TP - tremolo picking
T - tapping
S - slap
P - pop
< - fade in
^ - brush up
v - brush down





Git 1


      PM
      A chord diagramE MajorE  A chord diagramE MajorE  A chord diagramE MajorE  A chord diagramE MajorE  A chord diagramE MajorE  A chord diagramE MajorE  A chord diagramE MajorE  A chord diagramE MajorE     A chord diagramE MajorE  A chord diagramE MajorE  A chord diagramE MajorE  A chord diagramE MajorE  A chord diagramE MajorE  A chord diagramE MajorE  A chord diagramE MajorE  A chord diagramE MajorE
A chord diagramBB ||--------------------------|--------------------------|
A chord diagramF#F#||--------------------------|--------------------------|
A chord diagramD MajorD ||--------------------------|--------------------------|
A chord diagramA augmentedA ||--------8--7--------5--7--|--------8--7--------5--7--|
A chord diagramE MajorE ||-----5-----------5--------|-----5-----------5--------|
A chord diagramA augmentedA ||--5-----------------------|--------------------------|


  A chord diagramE MajorE  A chord diagramE MajorE   A chord diagramE MajorE  A chord diagramE MajorE  A chord diagramE MajorE  A chord diagramE MajorE  A chord diagramE MajorE  A chord diagramE MajorE     A chord diagramE MajorE  A chord diagramE MajorE  A chord diagramE MajorE   A chord diagramE MajorE  A chord diagramE MajorE  A chord diagramE MajorE   A chord diagramE MajorE  A chord diagramE MajorE
---------------------------|----------------------------|
---------------------------|----------------------------|
--------10--9--------9--7--|--------7-------------------|
-----7------------7--------|-----7-----10-----7--10--7--|
---------------------------|----------------------------|
---------------------------|----------------------------|


  A chord diagramE MajorE  A chord diagramE MajorE  A chord diagramE MajorE  A chord diagramE MajorE  A chord diagramE MajorE  A chord diagramE MajorE  A chord diagramE MajorE  A chord diagramE MajorE     A chord diagramE MajorE  A chord diagramE MajorE  A chord diagramE MajorE  A chord diagramE MajorE  A chord diagramE MajorE  A chord diagramE MajorE  A chord diagramE MajorE  A chord diagramE MajorE
--------------------------|--------------------------|
--------------------------|--------------------------|
--------9--7--------5--7--|--------9--7--------5--7--|
-----5-----------5--------|-----5-----------5--------|
--------------------------|--------------------------|
--------------------------|--------------------------|


  A chord diagramE MajorE  A chord diagramE MajorE   A chord diagramE MajorE   A chord diagramE MajorE  A chord diagramE MajorE  A chord diagramE MajorE   A chord diagramE MajorE  A chord diagramE MajorE     A chord diagramE MajorE  A chord diagramE MajorE  A chord diagramE MajorE  A chord diagramE MajorE  A chord diagramE MajorE  A chord diagramE MajorE  A chord diagramE MajorE  A chord diagramE MajorE
-----------------------------|--------------------------|
-----------------------------|--------------------------|
-----------------------------|--------------------------|
--------12--10--------10--8--|--------8--7--------8-----|
-----8-------------8---------|-----8-----------8-----9--|
-----------------------------|--------------------------|


  A chord diagramE MajorE  A chord diagramE MajorE  A chord diagramE MajorE  A chord diagramE MajorE  A chord diagramE MajorE  A chord diagramE MajorE  A chord diagramE MajorE  A chord diagramE MajorE     A chord diagramE MajorE  A chord diagramE MajorE  A chord diagramE MajorE  A chord diagramE MajorE  A chord diagramE MajorE  A chord diagramE MajorE  A chord diagramE MajorE  A chord diagramE MajorE
--------------------------|--------------------------|
--------------------------|--------------------------|
--------------------------|--------------------------|
--------8--7--------5--7--|--------8--7--------5--7--|
-----5-----------5--------|-----5-----------5--------|
--------------------------|--------------------------|


  A chord diagramE MajorE  A chord diagramE MajorE   A chord diagramE MajorE  A chord diagramE MajorE  A chord diagramE MajorE  A chord diagramE MajorE  A chord diagramE MajorE  A chord diagramE MajorE     A chord diagramE MajorE  A chord diagramE MajorE  A chord diagramE MajorE   A chord diagramE MajorE  A chord diagramE MajorE  A chord diagramE MajorE   A chord diagramE MajorE  A chord diagramE MajorE
---------------------------|----------------------------|
---------------------------|----------------------------|
--------10--9--------9--7--|--------7-------------------|
-----7------------7--------|-----7-----10-----7--10--7--|
---------------------------|----------------------------|
---------------------------|----------------------------|


  A chord diagramE MajorE  A chord diagramE MajorE  A chord diagramE MajorE  A chord diagramE MajorE  A chord diagramE MajorE  A chord diagramE MajorE  A chord diagramE MajorE  A chord diagramE MajorE     A chord diagramE MajorE  A chord diagramE MajorE  A chord diagramE MajorE  A chord diagramE MajorE  A chord diagramE MajorE  A chord diagramE MajorE  A chord diagramE MajorE  A chord diagramE MajorE
--------------------------|--------------------------|
--------------------------|--------------------------|
--------9--7--------5--7--|--------9--7--------5--7--|
-----5-----------5--------|-----5-----------5--------|
--------------------------|--------------------------|
--------------------------|--------------------------|


  A chord diagramE MajorE  A chord diagramE MajorE   A chord diagramE MajorE   A chord diagramE MajorE  A chord diagramE MajorE  A chord diagramE MajorE   A chord diagramE MajorE  A chord diagramE MajorE     A chord diagramE MajorE  A chord diagramE MajorE  A chord diagramE MajorE  A chord diagramE MajorE  A chord diagramE MajorE  A chord diagramE MajorE  A chord diagramE MajorE  A chord diagramE MajorE
-----------------------------|--------------------------|
-----------------------------|--------------------------|
-----------------------------|--------------------------|
--------12--10--------10--8--|--------8--7--------8-----|
-----8-------------8---------|-----8-----------8-----9--|
-----------------------------|--------------------------|


  A chord diagramE MajorE  A chord diagramE MajorE  A chord diagramE MajorE  A chord diagramE MajorE  A chord diagramE MajorE  A chord diagramE MajorE  A chord diagramE MajorE  A chord diagramE MajorE     A chord diagramE MajorE  A chord diagramE MajorE  A chord diagramE MajorE  A chord diagramE MajorE  A chord diagramE MajorE  A chord diagramE MajorE  A chord diagramE MajorE  A chord diagramE MajorE
--------------------------|--------------------------|
--------8-----------8-----|--------8-----------8-----|
--0--7-----7--0--7-----7--|--0--7-----7--0--7-----7--|
--------------------------|--------------------------|
--------------------------|--------------------------|
--------------------------|--------------------------|


  A chord diagramE MajorE  A chord diagramE MajorE  A chord diagramE MajorE  A chord diagramE MajorE  A chord diagramE MajorE  A chord diagramE MajorE  A chord diagramE MajorE  A chord diagramE MajorE     A chord diagramE MajorE  A chord diagramE MajorE  A chord diagramE MajorE  A chord diagramE MajorE  A chord diagramE MajorE  A chord diagramE MajorE  A chord diagramE MajorE  A chord diagramE MajorE
--------------------------|--------------------------|
--------------------------|--------------------------|
-----5--7--5-----5--7--5--|-----5--7--5-----5--7--5--|
--7-----------7-----------|--7-----------7-----------|
--------------------------|--------------------------|
--------------------------|--------------------------|


  A chord diagramE MajorE  A chord diagramE MajorE   A chord diagramE MajorE  A chord diagramE MajorE  A chord diagramE MajorE  A chord diagramE MajorE   A chord diagramE MajorE  A chord diagramE MajorE     A chord diagramE MajorE  A chord diagramE MajorE   A chord diagramE MajorE  A chord diagramE MajorE  A chord diagramE MajorE  A chord diagramE MajorE   A chord diagramE MajorE  A chord diagramE MajorE
----------------------------|----------------------------|
--------10-----------10-----|--------10-----------10-----|
-----9------9-----9------9--|-----9------9-----9------9--|
--7------------7------------|--7------------7------------|
----------------------------|----------------------------|
----------------------------|----------------------------|


  A chord diagramE MajorE  A chord diagramE MajorE   A chord diagramE MajorE  A chord diagramE MajorE  A chord diagramE MajorE  A chord diagramE MajorE   A chord diagramE MajorE  A chord diagramE MajorE     A chord diagramE MajorE  A chord diagramE MajorE   A chord diagramE MajorE  A chord diagramE MajorE  A chord diagramE MajorE  A chord diagramE MajorE   A chord diagramE MajorE  A chord diagramE MajorE
----------------------------|----------------------------|
----------------------------|----------------------------|
--0--7--10--7--0--7--10--7--|--0--7--10--7--0--7--10--7--|
----------------------------|----------------------------|
----------------------------|----------------------------|
----------------------------|----------------------------|


  A chord diagramE MajorE  A chord diagramE MajorE  A chord diagramE MajorE  A chord diagramE MajorE  A chord diagramE MajorE  A chord diagramE MajorE  A chord diagramE MajorE  A chord diagramE MajorE     A chord diagramE MajorE  A chord diagramE MajorE  A chord diagramE MajorE  A chord diagramE MajorE  A chord diagramE MajorE  A chord diagramE MajorE  A chord diagramE MajorE  A chord diagramE MajorE
--------------------------|--------------------------|
--------8-----------8-----|--------8-----------8-----|
--0--7-----7--0--7-----7--|--0--7-----7--0--7-----7--|
--------------------------|--------------------------|
--------------------------|--------------------------|
--------------------------|--------------------------|


  A chord diagramE MajorE  A chord diagramE MajorE  A chord diagramE MajorE  A chord diagramE MajorE  A chord diagramE MajorE  A chord diagramE MajorE  A chord diagramE MajorE  A chord diagramE MajorE     A chord diagramE MajorE  A chord diagramE MajorE  A chord diagramE MajorE  A chord diagramE MajorE  A chord diagramE MajorE  A chord diagramE MajorE  A chord diagramE MajorE  A chord diagramE MajorE
--------------------------|--------------------------|
--------------------------|--------------------------|
-----5--7--5-----5--7--5--|-----5--7--5-----5--7--5--|
--7-----------7-----------|--7-----------7-----------|
--------------------------|--------------------------|
--------------------------|--------------------------|


  A chord diagramE MajorE  A chord diagramE MajorE   A chord diagramE MajorE  A chord diagramE MajorE  A chord diagramE MajorE  A chord diagramE MajorE   A chord diagramE MajorE  A chord diagramE MajorE     A chord diagramE MajorE  A chord diagramE MajorE   A chord diagramE MajorE  A chord diagramE MajorE  A chord diagramE MajorE  A chord diagramE MajorE   A chord diagramE MajorE  A chord diagramE MajorE
----------------------------|----------------------------|
--------10-----------10-----|--------10-----------10-----|
-----9------9-----9------9--|-----9------9-----9------9--|
--7------------7------------|--7------------7------------|
----------------------------|----------------------------|
----------------------------|----------------------------|


  A chord diagramE MajorE  A chord diagramE MajorE   A chord diagramE MajorE  A chord diagramE MajorE  A chord diagramE MajorE  A chord diagramE MajorE   A chord diagramE MajorE  A chord diagramE MajorE     A chord diagramE MajorE  A chord diagramE MajorE   A chord diagramE MajorE  A chord diagramE MajorE  A chord diagramE MajorE  A chord diagramE MajorE   A chord diagramE MajorE  A chord diagramE MajorE
----------------------------|----------------------------|
----------------------------|----------------------------|
--0--7--10--7--0--7--10--7--|--0--7--10--7--0--7--10--7--|
----------------------------|----------------------------|
----------------------------|----------------------------|
----------------------------|----------------------------|


  PM PM    PM       PM          PM
  A chord diagramE MajorE  A chord diagramE MajorE  A chord diagramE MajorE  A chord diagramE MajorE  A chord diagramE MajorE  A chord diagramE MajorE  A chord diagramE MajorE  A chord diagramE MajorE     A chord diagramE MajorE  A chord diagramE MajorE  Q    A chord diagramE MajorE   A chord diagramE MajorE  Q
--------------------------|-------------------------|
--------------------------|-------------------------|
--------------------------|-------------------------|
--------5-----8--7-----5--|--L-----5----5s--7--7----|
-----5-----5--------8--6--|--L-----3----3s--5--5----|
--5--------------------5--|--L--5-------------------|


  PM PM    PM       PM          PM
  A chord diagramE MajorE  A chord diagramE MajorE  A chord diagramE MajorE  A chord diagramE MajorE  A chord diagramE MajorE  A chord diagramE MajorE  A chord diagramE MajorE  A chord diagramE MajorE     A chord diagramE MajorE  A chord diagramE MajorE  Q    A chord diagramE MajorE  A chord diagramE MajorE  Q
--------------------------|-------------------------|
--------------------------|-------------------------|
--------------------------|-------------------------|
--------5-----8--7-----5--|--L-----5----7--8--5\----|
-----5-----5--------8--6--|--L-----3----------------|
--5--------------------5--|--L--5-------------------|


  PM PM    PM       PM          PM
  A chord diagramE MajorE  A chord diagramE MajorE  A chord diagramE MajorE  A chord diagramE MajorE  A chord diagramE MajorE  A chord diagramE MajorE  A chord diagramE MajorE  A chord diagramE MajorE     A chord diagramE MajorE  A chord diagramE MajorE  Q    A chord diagramE MajorE   A chord diagramE MajorE  Q
--------------------------|-------------------------|
--------------------------|-------------------------|
--------------------------|-------------------------|
--------5-----8--7-----5--|--L-----5----5s--7--7----|
-----5-----5--------8--6--|--L-----3----3s--5--5----|
--5--------------------5--|--L--5-------------------|


  PM PM    PM       PM
  A chord diagramE MajorE  A chord diagramE MajorE  A chord diagramE MajorE  A chord diagramE MajorE  A chord diagramE MajorE  A chord diagramE MajorE  A chord diagramE MajorE  A chord diagramE MajorE     W
--------------------------|-------------------|
--------------------------|-------------------|
--------------------------|-------------------|
--------5-----8--7-----5--|--L----------------|
-----5-----5--------8--6--|--L----------------|
--5--------------------5--|--L----------------|


  PM
  A chord diagramE MajorE  A chord diagramE MajorE  A chord diagramE MajorE  A chord diagramE MajorE  A chord diagramE MajorE  A chord diagramE MajorE  A chord diagramE MajorE  A chord diagramE MajorE     A chord diagramE MajorE  A chord diagramE MajorE  A chord diagramE MajorE  A chord diagramE MajorE  A chord diagramE MajorE  A chord diagramE MajorE  A chord diagramE MajorE  A chord diagramE MajorE
--------------------------|--------------------------|
--------------------------|--------------------------|
--------------------------|--------------------------|
--------8--7--------5--7--|--------8--7--------5--7--|
-----5-----------5--------|-----5-----------5--------|
--5-----------------------|--------------------------|


  A chord diagramE MajorE  A chord diagramE MajorE   A chord diagramE MajorE  A chord diagramE MajorE  A chord diagramE MajorE  A chord diagramE MajorE  A chord diagramE MajorE  A chord diagramE MajorE     A chord diagramE MajorE  A chord diagramE MajorE  A chord diagramE MajorE   A chord diagramE MajorE  A chord diagramE MajorE  A chord diagramE MajorE   A chord diagramE MajorE  A chord diagramE MajorE
---------------------------|----------------------------|
---------------------------|----------------------------|
--------10--9--------9--7--|--------7-------------------|
-----7------------7--------|-----7-----10-----7--10--7--|
---------------------------|----------------------------|
---------------------------|----------------------------|


  A chord diagramE MajorE  A chord diagramE MajorE  A chord diagramE MajorE  A chord diagramE MajorE  A chord diagramE MajorE  A chord diagramE MajorE  A chord diagramE MajorE  A chord diagramE MajorE     A chord diagramE MajorE  A chord diagramE MajorE  A chord diagramE MajorE  A chord diagramE MajorE  A chord diagramE MajorE  A chord diagramE MajorE  A chord diagramE MajorE  A chord diagramE MajorE
--------------------------|--------------------------|
--------------------------|--------------------------|
--------9--7--------5--7--|--------9--7--------5--7--|
-----5-----------5--------|-----5-----------5--------|
--------------------------|--------------------------|
--------------------------|--------------------------|


  A chord diagramE MajorE  A chord diagramE MajorE   A chord diagramE MajorE   A chord diagramE MajorE  A chord diagramE MajorE  A chord diagramE MajorE   A chord diagramE MajorE  A chord diagramE MajorE     A chord diagramE MajorE  A chord diagramE MajorE  A chord diagramE MajorE  A chord diagramE MajorE  A chord diagramE MajorE  A chord diagramE MajorE  A chord diagramE MajorE  A chord diagramE MajorE
-----------------------------|--------------------------|
-----------------------------|--------------------------|
-----------------------------|--------------------------|
--------12--10--------10--8--|--------8--7--------8-----|
-----8-------------8---------|-----8-----------8-----9--|
-----------------------------|--------------------------|


  A chord diagramE MajorE  A chord diagramE MajorE  A chord diagramE MajorE  A chord diagramE MajorE  A chord diagramE MajorE  A chord diagramE MajorE  A chord diagramE MajorE  A chord diagramE MajorE     A chord diagramE MajorE  A chord diagramE MajorE  A chord diagramE MajorE  A chord diagramE MajorE  A chord diagramE MajorE  A chord diagramE MajorE  A chord diagramE MajorE  A chord diagramE MajorE
--------------------------|--------------------------|
--------------------------|--------------------------|
--------------------------|--------------------------|
--------8--7--------5--7--|--------8--7--------5--7--|
-----5-----------5--------|-----5-----------5--------|
--------------------------|--------------------------|


  A chord diagramE MajorE  A chord diagramE MajorE   A chord diagramE MajorE  A chord diagramE MajorE  A chord diagramE MajorE  A chord diagramE MajorE  A chord diagramE MajorE  A chord diagramE MajorE     A chord diagramE MajorE  A chord diagramE MajorE  A chord diagramE MajorE   A chord diagramE MajorE  A chord diagramE MajorE  A chord diagramE MajorE   A chord diagramE MajorE  A chord diagramE MajorE
---------------------------|----------------------------|
---------------------------|----------------------------|
--------10--9--------9--7--|--------7-------------------|
-----7------------7--------|-----7-----10-----7--10--7--|
---------------------------|----------------------------|
---------------------------|----------------------------|


  A chord diagramE MajorE  A chord diagramE MajorE  A chord diagramE MajorE  A chord diagramE MajorE  A chord diagramE MajorE  A chord diagramE MajorE  A chord diagramE MajorE  A chord diagramE MajorE     A chord diagramE MajorE  A chord diagramE MajorE  A chord diagramE MajorE  A chord diagramE MajorE  A chord diagramE MajorE  A chord diagramE MajorE  A chord diagramE MajorE  A chord diagramE MajorE
--------------------------|--------------------------|
--------------------------|--------------------------|
--------9--7--------5--7--|--------9--7--------5--7--|
-----5-----------5--------|-----5-----------5--------|
--------------------------|--------------------------|
--------------------------|--------------------------|


  A chord diagramE MajorE  A chord diagramE MajorE   A chord diagramE MajorE   A chord diagramE MajorE  A chord diagramE MajorE  A chord diagramE MajorE   A chord diagramE MajorE  A chord diagramE MajorE     A chord diagramE MajorE  A chord diagramE MajorE  A chord diagramE MajorE  A chord diagramE MajorE  A chord diagramE MajorE  A chord diagramE MajorE  A chord diagramE MajorE  A chord diagramE MajorE
-----------------------------|--------------------------|
-----------------------------|--------------------------|
-----------------------------|--------------------------|
--------12--10--------10--8--|--------8--7--------8-----|
-----8-------------8---------|-----8-----------8-----9--|
-----------------------------|--------------------------|


  A chord diagramE MajorE  A chord diagramE MajorE  A chord diagramE MajorE  A chord diagramE MajorE  A chord diagramE MajorE  A chord diagramE MajorE  A chord diagramE MajorE  A chord diagramE MajorE     A chord diagramE MajorE  A chord diagramE MajorE  A chord diagramE MajorE  A chord diagramE MajorE  A chord diagramE MajorE  A chord diagramE MajorE  A chord diagramE MajorE  A chord diagramE MajorE
--------------------------|--------------------------|
--------8-----------8-----|--------8-----------8-----|
--0--7-----7--0--7-----7--|--0--7-----7--0--7-----7--|
--------------------------|--------------------------|
--------------------------|--------------------------|
--------------------------|--------------------------|


  A chord diagramE MajorE  A chord diagramE MajorE  A chord diagramE MajorE  A chord diagramE MajorE  A chord diagramE MajorE  A chord diagramE MajorE  A chord diagramE MajorE  A chord diagramE MajorE     A chord diagramE MajorE  A chord diagramE MajorE  A chord diagramE MajorE  A chord diagramE MajorE  A chord diagramE MajorE  A chord diagramE MajorE  A chord diagramE MajorE  A chord diagramE MajorE
--------------------------|--------------------------|
--------------------------|--------------------------|
-----5--7--5-----5--7--5--|-----5--7--5-----5--7--5--|
--7-----------7-----------|--7-----------7-----------|
--------------------------|--------------------------|
--------------------------|--------------------------|


  A chord diagramE MajorE  A chord diagramE MajorE   A chord diagramE MajorE  A chord diagramE MajorE  A chord diagramE MajorE  A chord diagramE MajorE   A chord diagramE MajorE  A chord diagramE MajorE     A chord diagramE MajorE  A chord diagramE MajorE   A chord diagramE MajorE  A chord diagramE MajorE  A chord diagramE MajorE  A chord diagramE MajorE   A chord diagramE MajorE  A chord diagramE MajorE
----------------------------|----------------------------|
--------10-----------10-----|--------10-----------10-----|
-----9------9-----9------9--|-----9------9-----9------9--|
--7------------7------------|--7------------7------------|
----------------------------|----------------------------|
----------------------------|----------------------------|


  A chord diagramE MajorE  A chord diagramE MajorE   A chord diagramE MajorE  A chord diagramE MajorE  A chord diagramE MajorE  A chord diagramE MajorE   A chord diagramE MajorE  A chord diagramE MajorE     A chord diagramE MajorE  A chord diagramE MajorE   A chord diagramE MajorE  A chord diagramE MajorE  A chord diagramE MajorE  A chord diagramE MajorE   A chord diagramE MajorE  A chord diagramE MajorE
----------------------------|----------------------------|
----------------------------|----------------------------|
--0--7--10--7--0--7--10--7--|--0--7--10--7--0--7--10--7--|
----------------------------|----------------------------|
----------------------------|----------------------------|
----------------------------|----------------------------|


  A chord diagramE MajorE  A chord diagramE MajorE  A chord diagramE MajorE  A chord diagramE MajorE  A chord diagramE MajorE  A chord diagramE MajorE  A chord diagramE MajorE  A chord diagramE MajorE     A chord diagramE MajorE  A chord diagramE MajorE  A chord diagramE MajorE  A chord diagramE MajorE  A chord diagramE MajorE  A chord diagramE MajorE  A chord diagramE MajorE  A chord diagramE MajorE
--------------------------|--------------------------|
--------8-----------8-----|--------8-----------8-----|
--0--7-----7--0--7-----7--|--0--7-----7--0--7-----7--|
--------------------------|--------------------------|
--------------------------|--------------------------|
--------------------------|--------------------------|


  A chord diagramE MajorE  A chord diagramE MajorE  A chord diagramE MajorE  A chord diagramE MajorE  A chord diagramE MajorE  A chord diagramE MajorE  A chord diagramE MajorE  A chord diagramE MajorE     A chord diagramE MajorE  A chord diagramE MajorE  A chord diagramE MajorE  A chord diagramE MajorE  A chord diagramE MajorE  A chord diagramE MajorE  A chord diagramE MajorE  A chord diagramE MajorE
--------------------------|--------------------------|
--------------------------|--------------------------|
-----5--7--5-----5--7--5--|-----5--7--5-----5--7--5--|
--7-----------7-----------|--7-----------7-----------|
--------------------------|--------------------------|
--------------------------|--------------------------|


  A chord diagramE MajorE  A chord diagramE MajorE   A chord diagramE MajorE  A chord diagramE MajorE  A chord diagramE MajorE  A chord diagramE MajorE   A chord diagramE MajorE  A chord diagramE MajorE     A chord diagramE MajorE  A chord diagramE MajorE   A chord diagramE MajorE  A chord diagramE MajorE  A chord diagramE MajorE  A chord diagramE MajorE   A chord diagramE MajorE  A chord diagramE MajorE
----------------------------|----------------------------|
--------10-----------10-----|--------10-----------10-----|
-----9------9-----9------9--|-----9------9-----9------9--|
--7------------7------------|--7------------7------------|
----------------------------|----------------------------|
----------------------------|----------------------------|


  A chord diagramE MajorE  A chord diagramE MajorE   A chord diagramE MajorE  A chord diagramE MajorE  A chord diagramE MajorE  A chord diagramE MajorE   A chord diagramE MajorE  A chord diagramE MajorE     A chord diagramE MajorE  A chord diagramE MajorE   A chord diagramE MajorE  A chord diagramE MajorE  A chord diagramE MajorE  A chord diagramE MajorE   A chord diagramE MajorE  A chord diagramE MajorE
----------------------------|----------------------------|
----------------------------|----------------------------|
--0--7--10--7--0--7--10--7--|--0--7--10--7--0--7--10--7--|
----------------------------|----------------------------|
----------------------------|----------------------------|
----------------------------|----------------------------|


  PM PM    PM       PM          PM
  A chord diagramE MajorE  A chord diagramE MajorE  A chord diagramE MajorE  A chord diagramE MajorE  A chord diagramE MajorE  A chord diagramE MajorE  A chord diagramE MajorE  A chord diagramE MajorE     A chord diagramE MajorE  A chord diagramE MajorE  Q    A chord diagramE MajorE   A chord diagramE MajorE  Q
--------------------------|-------------------------|
--------------------------|-------------------------|
--------------------------|-------------------------|
--------5-----8--7-----5--|--L-----5----5s--7--7----|
-----5-----5--------8--6--|--L-----3----3s--5--5----|
--5--------------------5--|--L--5-------------------|


  PM PM    PM       PM          PM
  A chord diagramE MajorE  A chord diagramE MajorE  A chord diagramE MajorE  A chord diagramE MajorE  A chord diagramE MajorE  A chord diagramE MajorE  A chord diagramE MajorE  A chord diagramE MajorE     A chord diagramE MajorE  A chord diagramE MajorE  Q    A chord diagramE MajorE  A chord diagramE MajorE  Q
--------------------------|-------------------------|
--------------------------|-------------------------|
--------------------------|-------------------------|
--------5-----8--7-----5--|--L-----5----7--8--5\----|
-----5-----5--------8--6--|--L-----3----------------|
--5--------------------5--|--L--5-------------------|


  PM PM    PM       PM          PM
  A chord diagramE MajorE  A chord diagramE MajorE  A chord diagramE MajorE  A chord diagramE MajorE  A chord diagramE MajorE  A chord diagramE MajorE  A chord diagramE MajorE  A chord diagramE MajorE     A chord diagramE MajorE  A chord diagramE MajorE  Q    A chord diagramE MajorE   A chord diagramE MajorE  Q
--------------------------|-------------------------|
--------------------------|-------------------------|
--------------------------|-------------------------|
--------5-----8--7-----5--|--L-----5----5s--7--7----|
-----5-----5--------8--6--|--L-----3----3s--5--5----|
--5--------------------5--|--L--5-------------------|


  PM PM    PM       PM          PM
  A chord diagramE MajorE  A chord diagramE MajorE  A chord diagramE MajorE  A chord diagramE MajorE  A chord diagramE MajorE  A chord diagramE MajorE  A chord diagramE MajorE  A chord diagramE MajorE     A chord diagramE MajorE  A chord diagramE MajorE  Q    A chord diagramE MajorE  A chord diagramE MajorE  Q
--------------------------|------------------------|
--------------------------|------------------------|
--------------------------|------------------------|
--------5-----8--7-----5--|--L-----5----7--8--5----|
-----5-----5--------8--6--|--L-----3----7--8--5----|
--5--------------------5--|--L--5-------7--8--5----|


  W                   W                   W
-------------------|-------------------|-------------------|
-------------------|-------------------|-------------------|
-------------------|-------------------|-------------------|
--L----------------|--L----------------|--L----------------|
--L----------------|--L----------------|--L----------------|
--L----------------|--L----------------|--L----------------|


                     PM                PM
  H.           A chord diagramE MajorE     A chord diagramE MajorE  A chord diagramE MajorE  A chord diagramE MajorE  A chord diagramE MajorE  A chord diagramE MajorE  A chord diagramE MajorE  A chord diagramE MajorE  A chord diagramE MajorE
------------------|--------------------------|
------------------|--------------------------|
------------------|--------------------------|
--L------------L--|-----5--8--7--8--5-----5--|
--L------------L--|--5--5--8--7--8--5--5--5--|
--L------------L--|--5--5--8--7--8--5--5--5--|


  PM                PM       PM                PM
  A chord diagramE MajorE  A chord diagramE MajorE  A chord diagramE MajorE  A chord diagramE MajorE  A chord diagramE MajorE  A chord diagramE MajorE  A chord diagramE MajorE  A chord diagramE MajorE     A chord diagramE MajorE  A chord diagramE MajorE  A chord diagramE MajorE  A chord diagramE MajorE  A chord diagramE MajorE  A chord diagramE MajorE  A chord diagramE MajorE  A chord diagramE MajorE
--------------------------|--------------------------|
--------------------------|--------------------------|
--------------------------|--------------------------|
-----5--8--7--8--5-----5--|-----5--8--7--8--5-----5--|
--5--5--8--7--8--5--5--5--|--5--5--8--7--8--5--5--5--|
--5--5--8--7--8--5--5--5--|--5--5--8--7--8--5--5--5--|


  PM                PM       PM                PM
  A chord diagramE MajorE  A chord diagramE MajorE  A chord diagramE MajorE  A chord diagramE MajorE  A chord diagramE MajorE  A chord diagramE MajorE  A chord diagramE MajorE  A chord diagramE MajorE     A chord diagramE MajorE  A chord diagramE MajorE  A chord diagramE MajorE  A chord diagramE MajorE  A chord diagramE MajorE  A chord diagramE MajorE  A chord diagramE MajorE  A chord diagramE MajorE
--------------------------|--------------------------|
--------------------------|--------------------------|
--------------------------|--------------------------|
-----5--8--7--8--5-----5--|-----5--8--7--8--5-----5--|
--5--5--8--7--8--5--5--5--|--5--5--8--7--8--5--5--5--|
--5--5--8--7--8--5--5--5--|--5--5--8--7--8--5--5--5--|


  PM                          PM                PM
  A chord diagramE MajorE  A chord diagramE MajorE  A chord diagramE MajorE  A chord diagramE MajorE   A chord diagramE MajorE  A chord diagramE MajorE  A chord diagramE MajorE  A chord diagramE MajorE     A chord diagramE MajorE  A chord diagramE MajorE  A chord diagramE MajorE  A chord diagramE MajorE  A chord diagramE MajorE  A chord diagramE MajorE  A chord diagramE MajorE  A chord diagramE MajorE
---------------------------|--------------------------|
---------------------------|--------------------------|
---------------------------|--------------------------|
-----5--8--7--10--7--7--3--|-----3--7--5--7--3-----3--|
--5--5--8--7--10--7--7--3--|--3--3--7--5--7--3--3--3--|
--5--5--8--7--10--7--7--3--|--3--3--7--5--7--3--3--3--|


  PM                         PM                PM
  A chord diagramE MajorE  A chord diagramE MajorE  A chord diagramE MajorE  A chord diagramE MajorE  A chord diagramE MajorE  A chord diagramE MajorE  A chord diagramE MajorE  A chord diagramE MajorE     A chord diagramE MajorE  A chord diagramE MajorE  A chord diagramE MajorE  A chord diagramE MajorE  A chord diagramE MajorE  A chord diagramE MajorE  A chord diagramE MajorE  A chord diagramE MajorE
--------------------------|--------------------------|
--------------------------|--------------------------|
--------------------------|--------------------------|
-----3--7--5--8--5--5--0--|-----5--8--7--8--5-----5--|
--3--3--7--5--8--5--5--0--|--5--5--8--7--8--5--5--5--|
--3--3--7--5--8--5--5--0--|--5--5--8--7--8--5--5--5--|


  PM                          PM                PM
  A chord diagramE MajorE  A chord diagramE MajorE  A chord diagramE MajorE  A chord diagramE MajorE   A chord diagramE MajorE  A chord diagramE MajorE  A chord diagramE MajorE  A chord diagramE MajorE     A chord diagramE MajorE  A chord diagramE MajorE  A chord diagramE MajorE  A chord diagramE MajorE  A chord diagramE MajorE  A chord diagramE MajorE  A chord diagramE MajorE  A chord diagramE MajorE
---------------------------|--------------------------|
---------------------------|--------------------------|
---------------------------|--------------------------|
-----5--8--7--10--7--7--3--|-----3--7--5--7--3-----3--|
--5--5--8--7--10--7--7--3--|--3--3--7--5--7--3--3--3--|
--5--5--8--7--10--7--7--3--|--3--3--7--5--7--3--3--3--|


  PM                         PM                PM
  A chord diagramE MajorE  A chord diagramE MajorE  A chord diagramE MajorE  A chord diagramE MajorE  A chord diagramE MajorE  A chord diagramE MajorE  A chord diagramE MajorE  A chord diagramE MajorE     A chord diagramE MajorE  A chord diagramE MajorE  A chord diagramE MajorE  A chord diagramE MajorE  A chord diagramE MajorE  A chord diagramE MajorE  A chord diagramE MajorE  A chord diagramE MajorE
--------------------------|--------------------------|
--------------------------|--------------------------|
--------------------------|--------------------------|
-----3--7--5--8--5--5--0--|-----5--8--7--8--5-----5--|
--3--3--7--5--8--5--5--0--|--5--5--8--7--8--5--5--5--|
--3--3--7--5--8--5--5--0--|--5--5--8--7--8--5--5--5--|


  PM                          PM                PM
  A chord diagramE MajorE  A chord diagramE MajorE  A chord diagramE MajorE  A chord diagramE MajorE   A chord diagramE MajorE  A chord diagramE MajorE  A chord diagramE MajorE  A chord diagramE MajorE     A chord diagramE MajorE  A chord diagramE MajorE  A chord diagramE MajorE  A chord diagramE MajorE  A chord diagramE MajorE  A chord diagramE MajorE  A chord diagramE MajorE  A chord diagramE MajorE
---------------------------|--------------------------|
---------------------------|--------------------------|
---------------------------|--------------------------|
-----5--8--7--10--7--7--3--|-----3--7--5--7--3-----3--|
--5--5--8--7--10--7--7--3--|--3--3--7--5--7--3--3--3--|
--5--5--8--7--10--7--7--3--|--3--3--7--5--7--3--3--3--|


  PM                         PM                PM
  A chord diagramE MajorE  A chord diagramE MajorE  A chord diagramE MajorE  A chord diagramE MajorE  A chord diagramE MajorE  A chord diagramE MajorE  A chord diagramE MajorE  A chord diagramE MajorE     A chord diagramE MajorE  A chord diagramE MajorE  A chord diagramE MajorE  A chord diagramE MajorE  A chord diagramE MajorE  A chord diagramE MajorE  A chord diagramE MajorE  A chord diagramE MajorE
--------------------------|--------------------------|
--------------------------|--------------------------|
--------------------------|--------------------------|
-----3--7--5--8--5--5--0--|-----5--8--7--8--5-----5--|
--3--3--7--5--8--5--5--0--|--5--5--8--7--8--5--5--5--|
--3--3--7--5--8--5--5--0--|--5--5--8--7--8--5--5--5--|


  PM                          PM                PM
  A chord diagramE MajorE  A chord diagramE MajorE  A chord diagramE MajorE  A chord diagramE MajorE   A chord diagramE MajorE  A chord diagramE MajorE  A chord diagramE MajorE  A chord diagramE MajorE     A chord diagramE MajorE  A chord diagramE MajorE  A chord diagramE MajorE  A chord diagramE MajorE  A chord diagramE MajorE  A chord diagramE MajorE  A chord diagramE MajorE  A chord diagramE MajorE
---------------------------|--------------------------|
---------------------------|--------------------------|
---------------------------|--------------------------|
-----5--8--7--10--7--7--3--|-----3--7--5--7--3-----3--|
--5--5--8--7--10--7--7--3--|--3--3--7--5--7--3--3--3--|
--5--5--8--7--10--7--7--3--|--3--3--7--5--7--3--3--3--|


  PM
  A chord diagramE MajorE  A chord diagramE MajorE  A chord diagramE MajorE  A chord diagramE MajorE  A chord diagramE MajorE  A chord diagramE MajorE  A chord diagramE MajorE  A chord diagramE MajorE     S S S S S S S S S S S S S S S S
--------------------------|----------------------------------|
--------------------------|----------------------------------|
--------------------------|----------------------------------|
-----3--7--5--8--5--5--0--|--5-5-5-5-5-5-7-7-7-7-7-7-8-8-8-8-|
--3--3--7--5--8--5--5--0--|----------------------------------|
--3--3--7--5--8--5--5--0--|----------------------------------|


  S S S S S S S S S S S S S S S S    S S S S S S S S S S S S S S S S
----------------------------------|----------------------------------|
------------------8-8-8-8-8-8-8-8-|--6-6-6-6-6-6-5-5-5-5-5-5-6-6-6-6-|
------7-7-7-7-7-7-----------------|----------------------------------|
--8-8-----------------------------|----------------------------------|
----------------------------------|----------------------------------|
----------------------------------|----------------------------------|


  S S S S S S S S S S S S S S S S    S S S S S S S S S S S S S S S S
----------------------------------|----------------------------------|
----------------------------------|--5-5-5-5-5-5-------------5-5-5-5-|
--7-7-7-7-7-7-7-7-7-7-7-7-7-7-7-7-|--------------7-7-7-7-7-7---------|
----------------------------------|----------------------------------|
----------------------------------|----------------------------------|
----------------------------------|----------------------------------|


  S S S S S S S S S S S S S S S S    S S S S S S S S S S S S S S S S
----------------------------------|----------------------------------|
----------------------------------|----------------------------------|
--5-5-5-5-5-5-5-5-5-5-5-5-5-5-5-5-|--7-7-7-7-7-7-5-5-5-5-5-5-7-7-7-7-|
----------------------------------|----------------------------------|
----------------------------------|----------------------------------|
----------------------------------|----------------------------------|


  S S S S S S S S S S S S S S S S    S S S S S S S S S S S S S S S S
----------------------------------|----------------------------------|
----------------------------------|----------------------------------|
----------------------------------|----------------------------------|
--7-7-7-7-7-7-7-7-7-7-7-7-7-7-7-7-|--5-5-5-5-5-5-7-7-7-7-7-7-8-8-8-8-|
----------------------------------|----------------------------------|
----------------------------------|----------------------------------|


  S S S S S S S S S S S S S S S S    S S S S S S S S S S S S S S S S
----------------------------------|----------------------------------|
------------------8-8-8-8-8-8-8-8-|--6-6-6-6-6-6-5-5-5-5-5-5-6-6-6-6-|
------7-7-7-7-7-7-----------------|----------------------------------|
--8-8-----------------------------|----------------------------------|
----------------------------------|----------------------------------|
----------------------------------|----------------------------------|


  S S S S S S S S S S S S S S S S    S S S S S S S S S S S S S S S S
----------------------------------|----------------------------------|
----------------------------------|--5-5-5-5-5-5-------------5-5-5-5-|
--7-7-7-7-7-7-7-7-7-7-7-7-7-7-7-7-|--------------7-7-7-7-7-7---------|
----------------------------------|----------------------------------|
----------------------------------|----------------------------------|
----------------------------------|----------------------------------|


  S S S S S S S S S S S S S S S S    S S S S S S S S S S S S S S S S
----------------------------------|----------------------------------|
----------------------------------|--8-8-8-8-8-8-6-6-6-6-6-6-8-8-8-8-|
--5-5-5-5-5-5-5-5-5-5-5-5-5-5-5-5-|----------------------------------|
----------------------------------|----------------------------------|
----------------------------------|----------------------------------|
----------------------------------|----------------------------------|


  S S S S S S S S S S S S S S S S    S S S S S S S S S S S S S S S S
----------------------------------|----------------------------------|
----------------------------------|----------------------------------|
--7-7-7-7-7-7-7-7-7-7-7-7-7-7-7-7-|----------------------------------|
----------------------------------|--5-5-5-5-5-5-7-7-7-7-7-7-8-8-8-8-|
----------------------------------|----------------------------------|
----------------------------------|----------------------------------|


  S S S S S S S S S S S S S S S S    S S S S S S S S S S S S S S S S
----------------------------------|----------------------------------|
------------------8-8-8-8-8-8-8-8-|--6-6-6-6-6-6-5-5-5-5-5-5-6-6-6-6-|
------7-7-7-7-7-7-----------------|----------------------------------|
--8-8-----------------------------|----------------------------------|
----------------------------------|----------------------------------|
----------------------------------|----------------------------------|


  S S S S S S S S S S S S S S S S    S S S S S S S S S S S S S S S S
----------------------------------|----------------------------------|
----------------------------------|--5-5-5-5-5-5-------------5-5-5-5-|
--7-7-7-7-7-7-7-7-7-7-7-7-7-7-7-7-|--------------7-7-7-7-7-7---------|
----------------------------------|----------------------------------|
----------------------------------|----------------------------------|
----------------------------------|----------------------------------|


  S S S S S S S S S S S S S S S S    S S S S S S S S S S S S S S S S
----------------------------------|----------------------------------|
----------------------------------|--8-8-8-8-8-8-6-6-6-6-6-6-8-8-8-8-|
--5-5-5-5-5-5-5-5-5-5-5-5-5-5-5-5-|----------------------------------|
----------------------------------|----------------------------------|
----------------------------------|----------------------------------|
----------------------------------|----------------------------------|


                                     PM
  S S S S S S S S S S S S S S S S    A chord diagramE MajorE  A chord diagramE MajorE  A chord diagramE MajorE  A chord diagramE MajorE  A chord diagramE MajorE  A chord diagramE MajorE  A chord diagramE MajorE  A chord diagramE MajorE
----------------------------------|--------------------------|
----------------------------------|--------------------------|
--7-7-7-7-7-7-7-7-7-7-7-7-7-7-7-7-|-----3--7--5--7--3--------|
----------------------------------|--3--------------------3--|
----------------------------------|--------------------------|
----------------------------------|--------------------------|


                             PM                PM
  A chord diagramE MajorE  A chord diagramE MajorE  A chord diagramE MajorE  A chord diagramE MajorE  A chord diagramE MajorE  A chord diagramE MajorE  A chord diagramE MajorE  A chord diagramE MajorE     A chord diagramE MajorE  A chord diagramE MajorE  A chord diagramE MajorE  A chord diagramE MajorE  A chord diagramE MajorE  A chord diagramE MajorE  A chord diagramE MajorE  A chord diagramE MajorE
--------------------------|--------------------------|
--------------------------|--------------------------|
--------9--7--9--5--------|--------------------------|
-----5-----------------5--|-----5--8--7--8--5-----5--|
--------------------------|--5--5--8--7--8--5--5--5--|
--------------------------|--5--5--8--7--8--5--5--5--|


  PM                          PM                PM
  A chord diagramE MajorE  A chord diagramE MajorE  A chord diagramE MajorE  A chord diagramE MajorE   A chord diagramE MajorE  A chord diagramE MajorE  A chord diagramE MajorE  A chord diagramE MajorE     A chord diagramE MajorE  A chord diagramE MajorE  A chord diagramE MajorE  A chord diagramE MajorE  A chord diagramE MajorE  A chord diagramE MajorE  A chord diagramE MajorE  A chord diagramE MajorE
---------------------------|--------------------------|
---------------------------|--------------------------|
---------------------------|--------------------------|
-----5--8--7--10--7--7--3--|-----3--7--5--7--3-----3--|
--5--5--8--7--10--7--7--3--|--3--3--7--5--7--3--3--3--|
--5--5--8--7--10--7--7--3--|--3--3--7--5--7--3--3--3--|


  PM                         PM                PM
  A chord diagramE MajorE  A chord diagramE MajorE  A chord diagramE MajorE  A chord diagramE MajorE  A chord diagramE MajorE  A chord diagramE MajorE  A chord diagramE MajorE  A chord diagramE MajorE     A chord diagramE MajorE  A chord diagramE MajorE  A chord diagramE MajorE  A chord diagramE MajorE  A chord diagramE MajorE  A chord diagramE MajorE  A chord diagramE MajorE  A chord diagramE MajorE
--------------------------|--------------------------|
--------------------------|--------------------------|
--------------------------|--------------------------|
-----3--7--5--8--5--5--0--|-----5--8--7--8--5-----5--|
--3--3--7--5--8--5--5--0--|--5--5--8--7--8--5--5--5--|
--3--3--7--5--8--5--5--0--|--5--5--8--7--8--5--5--5--|


  PM                          PM                PM
  A chord diagramE MajorE  A chord diagramE MajorE  A chord diagramE MajorE  A chord diagramE MajorE   A chord diagramE MajorE  A chord diagramE MajorE  A chord diagramE MajorE  A chord diagramE MajorE     A chord diagramE MajorE  A chord diagramE MajorE  A chord diagramE MajorE  A chord diagramE MajorE  A chord diagramE MajorE  A chord diagramE MajorE  A chord diagramE MajorE  A chord diagramE MajorE
---------------------------|--------------------------|
---------------------------|--------------------------|
---------------------------|--------------------------|
-----5--8--7--10--7--7--3--|-----3--7--5--7--3-----3--|
--5--5--8--7--10--7--7--3--|--3--3--7--5--7--3--3--3--|
--5--5--8--7--10--7--7--3--|--3--3--7--5--7--3--3--3--|


  PM                         PM                PM
  A chord diagramE MajorE  A chord diagramE MajorE  A chord diagramE MajorE  A chord diagramE MajorE  A chord diagramE MajorE  A chord diagramE MajorE  A chord diagramE MajorE  A chord diagramE MajorE     A chord diagramE MajorE  A chord diagramE MajorE  A chord diagramE MajorE  A chord diagramE MajorE  A chord diagramE MajorE  A chord diagramE MajorE  A chord diagramE MajorE  A chord diagramE MajorE
--------------------------|--------------------------|
--------------------------|--------------------------|
--------------------------|--------------------------|
-----3--7--5--8--5--5--0--|-----5--8--7--8--5-----5--|
--3--3--7--5--8--5--5--0--|--5--5--8--7--8--5--5--5--|
--3--3--7--5--8--5--5--0--|--5--5--8--7--8--5--5--5--|


  PM                          PM                PM
  A chord diagramE MajorE  A chord diagramE MajorE  A chord diagramE MajorE  A chord diagramE MajorE   A chord diagramE MajorE  A chord diagramE MajorE  A chord diagramE MajorE  A chord diagramE MajorE     A chord diagramE MajorE  A chord diagramE MajorE  A chord diagramE MajorE  A chord diagramE MajorE  A chord diagramE MajorE  A chord diagramE MajorE  A chord diagramE MajorE  A chord diagramE MajorE
---------------------------|--------------------------|
---------------------------|--------------------------|
---------------------------|--------------------------|
-----5--8--7--10--7--7--3--|-----3--7--5--7--3-----3--|
--5--5--8--7--10--7--7--3--|--3--3--7--5--7--3--3--3--|
--5--5--8--7--10--7--7--3--|--3--3--7--5--7--3--3--3--|


  PM                         PM                PM
  A chord diagramE MajorE  A chord diagramE MajorE  A chord diagramE MajorE  A chord diagramE MajorE  A chord diagramE MajorE  A chord diagramE MajorE  A chord diagramE MajorE  A chord diagramE MajorE     A chord diagramE MajorE  A chord diagramE MajorE  A chord diagramE MajorE  A chord diagramE MajorE  A chord diagramE MajorE  A chord diagramE MajorE  A chord diagramE MajorE  A chord diagramE MajorE
--------------------------|--------------------------|
--------------------------|--------------------------|
--------------------------|--------------------------|
-----3--7--5--8--5--5--0--|-----5--8--7--8--5-----5--|
--3--3--7--5--8--5--5--0--|--5--5--8--7--8--5--5--5--|
--3--3--7--5--8--5--5--0--|--5--5--8--7--8--5--5--5--|


  PM                          PM                PM
  A chord diagramE MajorE  A chord diagramE MajorE  A chord diagramE MajorE  A chord diagramE MajorE   A chord diagramE MajorE  A chord diagramE MajorE  A chord diagramE MajorE  A chord diagramE MajorE     A chord diagramE MajorE  A chord diagramE MajorE  A chord diagramE MajorE  A chord diagramE MajorE  A chord diagramE MajorE  A chord diagramE MajorE  A chord diagramE MajorE  A chord diagramE MajorE
---------------------------|--------------------------|
---------------------------|--------------------------|
---------------------------|--------------------------|
-----5--8--7--10--7--7--3--|-----3--7--5--7--3-----3--|
--5--5--8--7--10--7--7--3--|--3--3--7--5--7--3--3--3--|
--5--5--8--7--10--7--7--3--|--3--3--7--5--7--3--3--3--|


  PM                         PM
  A chord diagramE MajorE  A chord diagramE MajorE  A chord diagramE MajorE  A chord diagramE MajorE  A chord diagramE MajorE  A chord diagramE MajorE  A chord diagramE MajorE  A chord diagramE MajorE     A chord diagramE MajorE  A chord diagramE MajorE  A chord diagramE MajorE  A chord diagramE MajorE  A chord diagramE MajorE  A chord diagramE MajorE  A chord diagramE MajorE  A chord diagramE MajorE
--------------------------|--------------------------|
--------------------------|--------------------------|
--------------------------|-----3--7--5--7--3--------|
-----3--7--5--8--5--5--0--|--3--------------------3--|
--3--3--7--5--8--5--5--0--|--------------------------|
--3--3--7--5--8--5--5--0--|--------------------------|


  A chord diagramE MajorE  A chord diagramE MajorE  A chord diagramE MajorE  A chord diagramE MajorE  A chord diagramE MajorE  A chord diagramE MajorE  A chord diagramE MajorE  A chord diagramE MajorE     A chord diagramE MajorE  A chord diagramE MajorE   A chord diagramE MajorE  A chord diagramE MajorE   A chord diagramE MajorE  A chord diagramE MajorE  A chord diagramE MajorE  A chord diagramE MajorE
--------------------------|----------------------------|
--------------------------|----------------------------|
--------9--7--9--5--------|-----7--10--9--10--7--------|
-----5-----------------5--|--7----------------------7--|
--------------------------|----------------------------|
--------------------------|----------------------------|


  A chord diagramE MajorE  A chord diagramE MajorE   A chord diagramE MajorE  S  S  A chord diagramE MajorE  S  S A chord diagramE MajorE   A chord diagramE MajorE      A chord diagramE MajorE  A chord diagramE MajorE  A chord diagramE MajorE  A chord diagramE MajorE  A chord diagramE MajorE   A chord diagramE MajorE  A chord diagramE MajorE   A chord diagramE MajorE
---------------------------------|-----------------------------|
---------------------------------|-----------------------------|
-----7--10--9-10-12--9-10-9------|------7--9--7--9-------------|
-----------------------------10--|--10--------------10-----10--|
---------------------------------|-----------------------------|
---------------------------------|-----------------------------|


  A chord diagramE MajorE   A chord diagramE MajorE  A chord diagramE MajorE  S S  A chord diagramE MajorE  S S A chord diagramE MajorE  A chord diagramE MajorE     A chord diagramE MajorE  A chord diagramE MajorE   A chord diagramE MajorE  A chord diagramE MajorE   A chord diagramE MajorE  A chord diagramE MajorE  A chord diagramE MajorE  A chord diagramE MajorE
------------------------------|----------------------------|
------------------------------|----------------------------|
---------9--7-9-10--7-9-7-----|-----7--10--9--10--7--------|
-----10--------------------7--|--7----------------------7--|
------------------------------|----------------------------|
------------------------------|----------------------------|


  A chord diagramE MajorE  A chord diagramE MajorE   A chord diagramE MajorE  S  S  A chord diagramE MajorE  S  S A chord diagramE MajorE   A chord diagramE MajorE      A chord diagramE MajorE  A chord diagramE MajorE  A chord diagramE MajorE  A chord diagramE MajorE  A chord diagramE MajorE   A chord diagramE MajorE  A chord diagramE MajorE   A chord diagramE MajorE
---------------------------------|-----------------------------|
---------------------------------|-----------------------------|
-----7--10--9-10-12--9-10-9------|------7--9--7--9-------------|
-----------------------------10--|--10--------------10-----10--|
---------------------------------|-----------------------------|
---------------------------------|-----------------------------|


  A chord diagramE MajorE   A chord diagramE MajorE  A chord diagramE MajorE  S S  A chord diagramE MajorE  S S A chord diagramE MajorE  A chord diagramE MajorE     A chord diagramE MajorE  A chord diagramE MajorE   A chord diagramE MajorE  A chord diagramE MajorE   A chord diagramE MajorE  A chord diagramE MajorE  A chord diagramE MajorE  A chord diagramE MajorE
------------------------------|----------------------------|
------------------------------|----------------------------|
---------9--7-9-10--7-9-7-----|-----7--10--9--10--7--------|
-----10--------------------7--|--7----------------------7--|
------------------------------|----------------------------|
------------------------------|----------------------------|


  A chord diagramE MajorE  A chord diagramE MajorE   A chord diagramE MajorE  S  S  A chord diagramE MajorE  S  S A chord diagramE MajorE   A chord diagramE MajorE      A chord diagramE MajorE  A chord diagramE MajorE  A chord diagramE MajorE  A chord diagramE MajorE  A chord diagramE MajorE   A chord diagramE MajorE  A chord diagramE MajorE   A chord diagramE MajorE
---------------------------------|-----------------------------|
---------------------------------|-----------------------------|
-----7--10--9-10-12--9-10-9------|------7--9--7--9-------------|
-----------------------------10--|--10--------------10-----10--|
---------------------------------|-----------------------------|
---------------------------------|-----------------------------|


  A chord diagramE MajorE   A chord diagramE MajorE  A chord diagramE MajorE  S S  A chord diagramE MajorE  S S A chord diagramE MajorE  A chord diagramE MajorE     A chord diagramE MajorE  A chord diagramE MajorE   A chord diagramE MajorE  A chord diagramE MajorE   A chord diagramE MajorE  A chord diagramE MajorE  A chord diagramE MajorE  A chord diagramE MajorE
------------------------------|----------------------------|
------------------------------|----------------------------|
---------9--7-9-10--7-9-7-----|-----7--10--9--10--7--------|
-----10--------------------7--|--7----------------------7--|
------------------------------|----------------------------|
------------------------------|----------------------------|


  A chord diagramE MajorE  A chord diagramE MajorE   A chord diagramE MajorE  S  S  A chord diagramE MajorE  S  S A chord diagramE MajorE   A chord diagramE MajorE      A chord diagramE MajorE  A chord diagramE MajorE  A chord diagramE MajorE  A chord diagramE MajorE  A chord diagramE MajorE   A chord diagramE MajorE  A chord diagramE MajorE   A chord diagramE MajorE
---------------------------------|-----------------------------|
---------------------------------|-----------------------------|
-----7--10--9-10-12--9-10-9------|------7--9--7--9-------------|
-----------------------------10--|--10--------------10-----10--|
---------------------------------|-----------------------------|
---------------------------------|-----------------------------|


  A chord diagramE MajorE   A chord diagramE MajorE  A chord diagramE MajorE  S S  A chord diagramE MajorE  S S A chord diagramE MajorE  A chord diagramE MajorE     A chord diagramE MajorE  A chord diagramE MajorE   A chord diagramE MajorE  A chord diagramE MajorE   A chord diagramE MajorE  A chord diagramE MajorE  A chord diagramE MajorE  A chord diagramE MajorE
------------------------------|----------------------------|
------------------------------|----------------------------|
---------9--7-9-10--7-9-7-----|-----7--10--9--10--7--------|
-----10--------------------7--|--7----------------------7--|
------------------------------|----------------------------|
------------------------------|----------------------------|


  A chord diagramE MajorE  A chord diagramE MajorE   A chord diagramE MajorE  S  S  A chord diagramE MajorE  S  S A chord diagramE MajorE   A chord diagramE MajorE      A chord diagramE MajorE  A chord diagramE MajorE  A chord diagramE MajorE  A chord diagramE MajorE  A chord diagramE MajorE   A chord diagramE MajorE  A chord diagramE MajorE   A chord diagramE MajorE
---------------------------------|-----------------------------|
---------------------------------|-----------------------------|
-----7--10--9-10-12--9-10-9------|------7--9--7--9-------------|
-----------------------------10--|--10--------------10-----10--|
---------------------------------|-----------------------------|
---------------------------------|-----------------------------|


  A chord diagramE MajorE   A chord diagramE MajorE  A chord diagramE MajorE  S S  A chord diagramE MajorE  S S A chord diagramE MajorE  A chord diagramE MajorE     A chord diagramE MajorE  A chord diagramE MajorE   A chord diagramE MajorE  A chord diagramE MajorE   A chord diagramE MajorE  A chord diagramE MajorE  A chord diagramE MajorE  A chord diagramE MajorE
------------------------------|----------------------------|
------------------------------|----------------------------|
---------9--7-9-10--7-9-7-----|-----7--10--9--10--7--------|
-----10--------------------7--|--7----------------------7--|
------------------------------|----------------------------|
------------------------------|----------------------------|


  A chord diagramE MajorE  A chord diagramE MajorE   A chord diagramE MajorE  S  S  A chord diagramE MajorE  S  S A chord diagramE MajorE   A chord diagramE MajorE      A chord diagramE MajorE  A chord diagramE MajorE  A chord diagramE MajorE  A chord diagramE MajorE  A chord diagramE MajorE   A chord diagramE MajorE  A chord diagramE MajorE   A chord diagramE MajorE
---------------------------------|-----------------------------|
---------------------------------|-----------------------------|
-----7--10--9-10-12--9-10-9------|------7--9--7--9-------------|
-----------------------------10--|--10--------------10-----10--|
---------------------------------|-----------------------------|
---------------------------------|-----------------------------|


  Slowly fading out...
  A chord diagramE MajorE                     A chord diagramE MajorE  A chord diagramE MajorE  S S  A chord diagramE MajorE  S S A chord diagramE MajorE  A chord diagramE MajorE
------------------------------------------------|
------------------------------------------------|
---------------------------9--7-9-10--7-9-7-----|
-----------------------10--------------------7--|
------------------------------------------------|
------------------------------------------------|


  A chord diagramE MajorE  A chord diagramE MajorE   A chord diagramE MajorE  A chord diagramE MajorE   A chord diagramE MajorE  A chord diagramE MajorE  A chord diagramE MajorE  A chord diagramE MajorE     A chord diagramE MajorE  A chord diagramE MajorE   A chord diagramE MajorE  S  S  A chord diagramE MajorE  S  S A chord diagramE MajorE   A chord diagramE MajorE
----------------------------|---------------------------------|
----------------------------|---------------------------------|
-----7--10--9--10--7--------|-----7--10--9-10-12--9-10-9------|
--7----------------------7--|-----------------------------10--|
----------------------------|---------------------------------|
----------------------------|---------------------------------|


   A chord diagramE MajorE  A chord diagramE MajorE  A chord diagramE MajorE  A chord diagramE MajorE  A chord diagramE MajorE   A chord diagramE MajorE  A chord diagramE MajorE   A chord diagramE MajorE     A chord diagramE MajorE   A chord diagramE MajorE  A chord diagramE MajorE  S S  A chord diagramE MajorE  S S A chord diagramE MajorE  A chord diagramE MajorE
-----------------------------|------------------------------|
-----------------------------|------------------------------|
------7--9--7--9-------------|---------9--7-9-10--7-9-7-----|
--10--------------10-----10--|-----10--------------------7--|
-----------------------------|------------------------------|
-----------------------------|------------------------------|


  A chord diagramE MajorE  A chord diagramE MajorE   A chord diagramE MajorE  A chord diagramE MajorE   A chord diagramE MajorE  A chord diagramE MajorE  A chord diagramE MajorE  A chord diagramE MajorE     A chord diagramE MajorE  A chord diagramE MajorE   A chord diagramE MajorE  S  S  A chord diagramE MajorE  S  S A chord diagramE MajorE   A chord diagramE MajorE
----------------------------|---------------------------------|
----------------------------|---------------------------------|
-----7--10--9--10--7--------|-----7--10--9-10-12--9-10-9------|
--7----------------------7--|-----------------------------10--|
----------------------------|---------------------------------|
----------------------------|---------------------------------|


   A chord diagramE MajorE  A chord diagramE MajorE  A chord diagramE MajorE  A chord diagramE MajorE  A chord diagramE MajorE   A chord diagramE MajorE  A chord diagramE MajorE   A chord diagramE MajorE     A chord diagramE MajorE   A chord diagramE MajorE  A chord diagramE MajorE  S S  A chord diagramE MajorE  S S A chord diagramE MajorE  A chord diagramE MajorE
-----------------------------|------------------------------||
-----------------------------|------------------------------||
------7--9--7--9-------------|---------9--7-9-10--7-9-7-----||
--10--------------10-----10--|-----10--------------------7--||
-----------------------------|------------------------------||
-----------------------------|------------------------------||


Git 2


      Q     A chord diagramE MajorE   A chord diagramE MajorE  Q    A chord diagramE MajorE   A chord diagramE MajorE     Q     A chord diagramE MajorE   A chord diagramE MajorE  Q    A chord diagramE MajorE   A chord diagramE MajorE
A chord diagramBB ||---------------------------|---------------------------|
A chord diagramF#F#||-------11--10-------8--10--|-------11--10-------8--10--|
A chord diagramD MajorD ||---------------------------|---------------------------|
A chord diagramA augmentedA ||---------------------------|---------------------------|
A chord diagramE MajorE ||---------------------------|---------------------------|
A chord diagramA augmentedA ||---------------------------|---------------------------|


  Q     A chord diagramE MajorE   A chord diagramE MajorE  Q     A chord diagramE MajorE   A chord diagramE MajorE     Q     A chord diagramE MajorE   A chord diagramE MajorE  Q     A chord diagramE MajorE   A chord diagramE MajorE
-------13--12-------12--10--|-------10-------------------|
----------------------------|-----------13-------13--10--|
----------------------------|----------------------------|
----------------------------|----------------------------|
----------------------------|----------------------------|
----------------------------|----------------------------|


  A chord diagramE MajorE  A chord diagramE MajorE  A chord diagramE MajorE  A chord diagramE MajorE  A chord diagramE MajorE  A chord diagramE MajorE  A chord diagramE MajorE  A chord diagramE MajorE     A chord diagramE MajorE  A chord diagramE MajorE  A chord diagramE MajorE  A chord diagramE MajorE  A chord diagramE MajorE  A chord diagramE MajorE  A chord diagramE MajorE  A chord diagramE MajorE
--------------------------|--------------------------|
--------------------------|--------------------------|
--------9--7--------5--7--|--------9--7--------5--7--|
-----5-----------5--------|-----5-----------5--------|
--------------------------|--------------------------|
--------------------------|--------------------------|


  Q     A chord diagramE MajorE   A chord diagramE MajorE  Q     A chord diagramE MajorE   A chord diagramE MajorE     Q     A chord diagramE MajorE   A chord diagramE MajorE  A chord diagramE MajorE  A chord diagramE MajorE  A chord diagramE MajorE  A chord diagramE MajorE
----------------------------|---------------------------|
-------15--13-------13--11--|-------11--10--------------|
----------------------------|---------------------------|
----------------------------|---------------------8-----|
----------------------------|------------------8-----9--|
----------------------------|---------------------------|


  Q     A chord diagramE MajorE   A chord diagramE MajorE  Q    A chord diagramE MajorE   A chord diagramE MajorE     Q     A chord diagramE MajorE   A chord diagramE MajorE  Q    A chord diagramE MajorE   A chord diagramE MajorE
---------------------------|---------------------------|
-------11--10-------8--10--|-------11--10-------8--10--|
---------------------------|---------------------------|
---------------------------|---------------------------|
---------------------------|---------------------------|
---------------------------|---------------------------|


  Q     A chord diagramE MajorE   A chord diagramE MajorE  Q     A chord diagramE MajorE   A chord diagramE MajorE     Q     A chord diagramE MajorE   A chord diagramE MajorE  Q     A chord diagramE MajorE   A chord diagramE MajorE
-------13--12-------12--10--|-------10-------------------|
----------------------------|-----------13-------13--10--|
----------------------------|----------------------------|
----------------------------|----------------------------|
----------------------------|----------------------------|
----------------------------|----------------------------|


  A chord diagramE MajorE  A chord diagramE MajorE  A chord diagramE MajorE  A chord diagramE MajorE  A chord diagramE MajorE  A chord diagramE MajorE  A chord diagramE MajorE  A chord diagramE MajorE     A chord diagramE MajorE  A chord diagramE MajorE  A chord diagramE MajorE  A chord diagramE MajorE  A chord diagramE MajorE  A chord diagramE MajorE  A chord diagramE MajorE  A chord diagramE MajorE
--------------------------|--------------------------|
--------------------------|--------------------------|
--------9--7--------5--7--|--------9--7--------5--7--|
-----5-----------5--------|-----5-----------5--------|
--------------------------|--------------------------|
--------------------------|--------------------------|


  Q     A chord diagramE MajorE   A chord diagramE MajorE  Q     A chord diagramE MajorE   A chord diagramE MajorE     Q     A chord diagramE MajorE   A chord diagramE MajorE  A chord diagramE MajorE  A chord diagramE MajorE  A chord diagramE MajorE  A chord diagramE MajorE
----------------------------|---------------------------|
-------15--13-------13--11--|-------11--10--------------|
----------------------------|---------------------------|
----------------------------|---------------------8-----|
----------------------------|------------------8-----9--|
----------------------------|---------------------------|


  W                   H        H           W
-------------------|--------------------|-------------------|
-------------------|--------------------|-------------------|
-------------------|--------------------|-------------------|
--5----------------|--L--------8--------|--7----------------|
--5----------------|--L--------8--------|--7----------------|
--5----------------|--L--------8--------|--7----------------|


  W                   W                   H        H
-------------------|-------------------|--------------------|
-------------------|-------------------|--------------------|
-------------------|-------------------|--------------------|
--3----------------|--7----------------|--L--------8--------|
--3----------------|--7----------------|--L--------8--------|
--3----------------|--7----------------|--L--------8--------|


  A chord diagramE MajorE  A chord diagramE MajorE  A chord diagramE MajorE  A chord diagramE MajorE  H           H        H           W
-----------------------|--------------------|-------------------|
-----------------------|--------------------|-------------------|
-----------------------|--------------------|-------------------|
--7--8--7--5--L--------|--L--------3--------|--5----------------|
--7--8--7--5--L--------|--L--------3--------|--5----------------|
--7--8--7--5--L--------|--L--------3--------|--5----------------|


  H        H           W                   W
--------------------|-------------------|-------------------|
--------------------|-------------------|-------------------|
--------------------|-------------------|-------------------|
--L--------8--------|--7----------------|--3----------------|
--L--------8--------|--7----------------|--3----------------|
--L--------8--------|--7----------------|--3----------------|


  W                   H        H           A chord diagramE MajorE  A chord diagramE MajorE  A chord diagramE MajorE  A chord diagramE MajorE  H
-------------------|--------------------|-----------------------|
-------------------|--------------------|-----------------------|
-------------------|--------------------|-----------------------|
--7----------------|--L--------8--------|--7--8--7--5--L--------|
--7----------------|--L--------8--------|--7--8--7--5--L--------|
--7----------------|--L--------8--------|--7--8--7--5--L--------|


                       PM PM    PM       PM
  H        H           A chord diagramE MajorE  A chord diagramE MajorE  A chord diagramE MajorE  A chord diagramE MajorE  A chord diagramE MajorE  A chord diagramE MajorE  A chord diagramE MajorE  A chord diagramE MajorE
--------------------|--------------------------|
--------------------|--------------------------|
--------------------|--------------------------|
--L--------3--------|--------5-----8--7-----5--|
--L--------3--------|-----5-----5--------8--6--|
--L--------3--------|--5--------------------5--|


     PM                     PM PM    PM       PM
  A chord diagramE MajorE  A chord diagramE MajorE  Q    A chord diagramE MajorE   A chord diagramE MajorE  Q       A chord diagramE MajorE  A chord diagramE MajorE  A chord diagramE MajorE  A chord diagramE MajorE  A chord diagramE MajorE  A chord diagramE MajorE  A chord diagramE MajorE  A chord diagramE MajorE
-------------------------|--------------------------|
-------------------------|--------------------------|
-------------------------|--------------------------|
--L-----5----5s--7--7----|--------5-----8--7-----5--|
--L-----3----3s--5--5----|-----5-----5--------8--6--|
--L--5-------------------|--5--------------------5--|


     PM                      PM PM    PM       PM
  A chord diagramE MajorE  A chord diagramE MajorE  Q    A chord diagramE MajorE   A chord diagramE MajorE  Q        A chord diagramE MajorE  A chord diagramE MajorE  A chord diagramE MajorE  A chord diagramE MajorE  A chord diagramE MajorE  A chord diagramE MajorE  A chord diagramE MajorE  A chord diagramE MajorE
--------------------------|--------------------------|
--------------------------|--------------------------|
--------------------------|--------------------------|
--L-----5-----------------|--------5-----8--7-----5--|
--L-----3----8--10--7\----|-----5-----5--------8--6--|
--L--5--------------------|--5--------------------5--|


     PM                     PM PM    PM       PM
  A chord diagramE MajorE  A chord diagramE MajorE  Q    A chord diagramE MajorE   A chord diagramE MajorE  Q       A chord diagramE MajorE  A chord diagramE MajorE  A chord diagramE MajorE  A chord diagramE MajorE  A chord diagramE MajorE  A chord diagramE MajorE  A chord diagramE MajorE  A chord diagramE MajorE
-------------------------|--------------------------|
-------------------------|--------------------------|
-------------------------|--------------------------|
--L-----5----5s--7--7----|--------5-----8--7-----5--|
--L-----3----3s--5--5----|-----5-----5--------8--6--|
--L--5-------------------|--5--------------------5--|


  W                   Q     A chord diagramE MajorE   A chord diagramE MajorE  Q    A chord diagramE MajorE   A chord diagramE MajorE
-------------------|---------------------------|
-------------------|-------11--10-------8--10--|
-------------------|---------------------------|
--L----------------|---------------------------|
--L----------------|---------------------------|
--L----------------|---------------------------|


  Q     A chord diagramE MajorE   A chord diagramE MajorE  Q    A chord diagramE MajorE   A chord diagramE MajorE     Q     A chord diagramE MajorE   A chord diagramE MajorE  Q     A chord diagramE MajorE   A chord diagramE MajorE
---------------------------|-------13--12-------12--10--|
-------11--10-------8--10--|----------------------------|
---------------------------|----------------------------|
---------------------------|----------------------------|
---------------------------|----------------------------|
---------------------------|----------------------------|


  Q     A chord diagramE MajorE   A chord diagramE MajorE  Q     A chord diagramE MajorE   A chord diagramE MajorE     A chord diagramE MajorE  A chord diagramE MajorE  A chord diagramE MajorE  A chord diagramE MajorE  A chord diagramE MajorE  A chord diagramE MajorE  A chord diagramE MajorE  A chord diagramE MajorE
-------10-------------------|--------------------------|
-----------13-------13--10--|--------------------------|
----------------------------|--------9--7--------5--7--|
----------------------------|-----5-----------5--------|
----------------------------|--------------------------|
----------------------------|--------------------------|


  A chord diagramE MajorE  A chord diagramE MajorE  A chord diagramE MajorE  A chord diagramE MajorE  A chord diagramE MajorE  A chord diagramE MajorE  A chord diagramE MajorE  A chord diagramE MajorE     A chord diagramE MajorE  A chord diagramE MajorE   A chord diagramE MajorE   A chord diagramE MajorE  A chord diagramE MajorE  A chord diagramE MajorE   A chord diagramE MajorE  A chord diagramE MajorE
--------------------------|-----------------------------|
--------------------------|-----------------------------|
--------9--7--------5--7--|-----------------------------|
-----5-----------5--------|--------12--10--------10--8--|
--------------------------|-----8-------------8---------|
--------------------------|-----------------------------|


  A chord diagramE MajorE  A chord diagramE MajorE  A chord diagramE MajorE  A chord diagramE MajorE  A chord diagramE MajorE  A chord diagramE MajorE  A chord diagramE MajorE  A chord diagramE MajorE     Q     A chord diagramE MajorE   A chord diagramE MajorE  Q    A chord diagramE MajorE   A chord diagramE MajorE
--------------------------|---------------------------|
--------------------------|-------11--10-------8--10--|
--------------------------|---------------------------|
--------8--7--------8-----|---------------------------|
-----8-----------8-----9--|---------------------------|
--------------------------|---------------------------|


  Q     A chord diagramE MajorE   A chord diagramE MajorE  Q    A chord diagramE MajorE   A chord diagramE MajorE     Q     A chord diagramE MajorE   A chord diagramE MajorE  Q     A chord diagramE MajorE   A chord diagramE MajorE
---------------------------|-------13--12-------12--10--|
-------11--10-------8--10--|----------------------------|
---------------------------|----------------------------|
---------------------------|----------------------------|
---------------------------|----------------------------|
---------------------------|----------------------------|


  Q     A chord diagramE MajorE   A chord diagramE MajorE  Q     A chord diagramE MajorE   A chord diagramE MajorE     A chord diagramE MajorE  A chord diagramE MajorE  A chord diagramE MajorE  A chord diagramE MajorE  A chord diagramE MajorE  A chord diagramE MajorE  A chord diagramE MajorE  A chord diagramE MajorE
-------10-------------------|--------------------------|
-----------13-------13--10--|--------------------------|
----------------------------|--------9--7--------5--7--|
----------------------------|-----5-----------5--------|
----------------------------|--------------------------|
----------------------------|--------------------------|


  A chord diagramE MajorE  A chord diagramE MajorE  A chord diagramE MajorE  A chord diagramE MajorE  A chord diagramE MajorE  A chord diagramE MajorE  A chord diagramE MajorE  A chord diagramE MajorE     A chord diagramE MajorE  A chord diagramE MajorE   A chord diagramE MajorE   A chord diagramE MajorE  A chord diagramE MajorE  A chord diagramE MajorE   A chord diagramE MajorE  A chord diagramE MajorE
--------------------------|-----------------------------|
--------------------------|-----------------------------|
--------9--7--------5--7--|-----------------------------|
-----5-----------5--------|--------12--10--------10--8--|
--------------------------|-----8-------------8---------|
--------------------------|-----------------------------|


  A chord diagramE MajorE  A chord diagramE MajorE  A chord diagramE MajorE  A chord diagramE MajorE  A chord diagramE MajorE  A chord diagramE MajorE  A chord diagramE MajorE  A chord diagramE MajorE     W                   H        H
--------------------------|-------------------|--------------------|
--------------------------|-------------------|--------------------|
--------------------------|-------------------|--------------------|
--------8--7--------8-----|--5----------------|--L--------8--------|
-----8-----------8-----9--|--5----------------|--L--------8--------|
--------------------------|--5----------------|--L--------8--------|


  W                   W                   W
-------------------|-------------------|-------------------|
-------------------|-------------------|-------------------|
-------------------|-------------------|-------------------|
--7----------------|--3----------------|--7----------------|
--7----------------|--3----------------|--7----------------|
--7----------------|--3----------------|--7----------------|


  H        H           A chord diagramE MajorE  A chord diagramE MajorE  A chord diagramE MajorE  A chord diagramE MajorE  H           H        H
--------------------|-----------------------|--------------------|
--------------------|-----------------------|--------------------|
--------------------|-----------------------|--------------------|
--L--------8--------|--7--8--7--5--L--------|--L--------3--------|
--L--------8--------|--7--8--7--5--L--------|--L--------3--------|
--L--------8--------|--7--8--7--5--L--------|--L--------3--------|


  W                   H        H           W
-------------------|--------------------|-------------------|
-------------------|--------------------|-------------------|
-------------------|--------------------|-------------------|
--5----------------|--L--------8--------|--7----------------|
--5----------------|--L--------8--------|--7----------------|
--5----------------|--L--------8--------|--7----------------|


  W                   W                   H        H
-------------------|-------------------|--------------------|
-------------------|-------------------|--------------------|
-------------------|-------------------|--------------------|
--3----------------|--7----------------|--L--------8--------|
--3----------------|--7----------------|--L--------8--------|
--3----------------|--7----------------|--L--------8--------|


  A chord diagramE MajorE  A chord diagramE MajorE  A chord diagramE MajorE  A chord diagramE MajorE  H           H        H
-----------------------|--------------------|
-----------------------|--------------------|
-----------------------|--------------------|
--7--8--7--5--L--------|--L--------3--------|
--7--8--7--5--L--------|--L--------3--------|
--7--8--7--5--L--------|--L--------3--------|


  PM PM    PM       PM          PM
  A chord diagramE MajorE  A chord diagramE MajorE  A chord diagramE MajorE  A chord diagramE MajorE  A chord diagramE MajorE  A chord diagramE MajorE  A chord diagramE MajorE  A chord diagramE MajorE     A chord diagramE MajorE  A chord diagramE MajorE  Q    A chord diagramE MajorE   A chord diagramE MajorE  Q
--------------------------|-------------------------|
--------------------------|-------------------------|
--------------------------|-------------------------|
--------5-----8--7-----5--|--L-----5----5s--7--7----|
-----5-----5--------8--6--|--L-----3----3s--5--5----|
--5--------------------5--|--L--5-------------------|


  PM PM    PM       PM          PM
  A chord diagramE MajorE  A chord diagramE MajorE  A chord diagramE MajorE  A chord diagramE MajorE  A chord diagramE MajorE  A chord diagramE MajorE  A chord diagramE MajorE  A chord diagramE MajorE     A chord diagramE MajorE  A chord diagramE MajorE  Q    A chord diagramE MajorE   A chord diagramE MajorE  Q
--------------------------|--------------------------|
--------------------------|--------------------------|
--------------------------|--------------------------|
--------5-----8--7-----5--|--L-----5-----------------|
-----5-----5--------8--6--|--L-----3----8--10--7\----|
--5--------------------5--|--L--5--------------------|


  PM PM    PM       PM          PM
  A chord diagramE MajorE  A chord diagramE MajorE  A chord diagramE MajorE  A chord diagramE MajorE  A chord diagramE MajorE  A chord diagramE MajorE  A chord diagramE MajorE  A chord diagramE MajorE     A chord diagramE MajorE  A chord diagramE MajorE  Q    A chord diagramE MajorE   A chord diagramE MajorE  Q
--------------------------|-------------------------|
--------------------------|-------------------------|
--------------------------|-------------------------|
--------5-----8--7-----5--|--L-----5----5s--7--7----|
-----5-----5--------8--6--|--L-----3----3s--5--5----|
--5--------------------5--|--L--5-------------------|


  PM PM    PM       PM          PM
  A chord diagramE MajorE  A chord diagramE MajorE  A chord diagramE MajorE  A chord diagramE MajorE  A chord diagramE MajorE  A chord diagramE MajorE  A chord diagramE MajorE  A chord diagramE MajorE     A chord diagramE MajorE  A chord diagramE MajorE  Q     A chord diagramE MajorE   A chord diagramE MajorE  Q
--------------------------|--------------------------|
--------------------------|-------------10--11--8----|
--------------------------|--------------------------|
--------5-----8--7-----5--|--L-----5-----------------|
-----5-----5--------8--6--|--L-----3-----------------|
--5--------------------5--|--L--5--------------------|


  W                   W                   W
-------------------|-------------------|-------------------|
--L----------------|--L----------------|--L----------------|
-------------------|-------------------|-------------------|
-------------------|-------------------|-------------------|
-------------------|-------------------|-------------------|
-------------------|-------------------|-------------------|


                     PM                PM
  H.           A chord diagramE MajorE     A chord diagramE MajorE  A chord diagramE MajorE  A chord diagramE MajorE  A chord diagramE MajorE  A chord diagramE MajorE  A chord diagramE MajorE  A chord diagramE MajorE  A chord diagramE MajorE
------------------|--------------------------|
--L------------L--|--------------------------|
------------------|--------------------------|
------------------|-----5--8--7--8--5-----5--|
------------------|--5--5--8--7--8--5--5--5--|
------------------|--5--5--8--7--8--5--5--5--|


  PM                PM       PM                PM
  A chord diagramE MajorE  A chord diagramE MajorE  A chord diagramE MajorE  A chord diagramE MajorE  A chord diagramE MajorE  A chord diagramE MajorE  A chord diagramE MajorE  A chord diagramE MajorE     A chord diagramE MajorE  A chord diagramE MajorE  A chord diagramE MajorE  A chord diagramE MajorE  A chord diagramE MajorE  A chord diagramE MajorE  A chord diagramE MajorE  A chord diagramE MajorE
--------------------------|--------------------------|
--------------------------|--------------------------|
--------------------------|--------------------------|
-----5--8--7--8--5-----5--|-----5--8--7--8--5-----5--|
--5--5--8--7--8--5--5--5--|--5--5--8--7--8--5--5--5--|
--5--5--8--7--8--5--5--5--|--5--5--8--7--8--5--5--5--|


  PM                PM
  A chord diagramE MajorE  A chord diagramE MajorE  A chord diagramE MajorE  A chord diagramE MajorE  A chord diagramE MajorE  A chord diagramE MajorE  A chord diagramE MajorE  A chord diagramE MajorE     A chord diagramE MajorE  A chord diagramE MajorE   A chord diagramE MajorE   A chord diagramE MajorE   A chord diagramE MajorE  A chord diagramE MajorE  A chord diagramE MajorE  A chord diagramE MajorE
--------------------------|-----------------------------|
--------------------------|-----8--11--10--11--8-----8--|
--------------------------|-----------------------------|
-----5--8--7--8--5-----5--|-----------------------------|
--5--5--8--7--8--5--5--5--|-----------------------------|
--5--5--8--7--8--5--5--5--|-----------------------------|


  A chord diagramE MajorE  A chord diagramE MajorE   A chord diagramE MajorE   A chord diagramE MajorE   A chord diagramE MajorE   A chord diagramE MajorE   A chord diagramE MajorE  A chord diagramE MajorE     A chord diagramE MajorE  A chord diagramE MajorE   A chord diagramE MajorE  A chord diagramE MajorE   A chord diagramE MajorE  A chord diagramE MajorE  A chord diagramE MajorE  A chord diagramE MajorE
-------------------------------|----------------------------|
-----8--11--10--13--10--10--6--|-----6--10--8--10--6-----6--|
-------------------------------|----------------------------|
-------------------------------|----------------------------|
-------------------------------|----------------------------|
-------------------------------|----------------------------|


  A chord diagramE MajorE  A chord diagramE MajorE   A chord diagramE MajorE  A chord diagramE MajorE   A chord diagramE MajorE  A chord diagramE MajorE  A chord diagramE MajorE  A chord diagramE MajorE     A chord diagramE MajorE  A chord diagramE MajorE   A chord diagramE MajorE   A chord diagramE MajorE   A chord diagramE MajorE  A chord diagramE MajorE  A chord diagramE MajorE  A chord diagramE MajorE
----------------------------|-----------------------------|
-----6--10--8--11--8--8-----|-----8--11--10--11--8-----8--|
-------------------------7--|-----------------------------|
----------------------------|-----------------------------|
----------------------------|-----------------------------|
----------------------------|-----------------------------|


  A chord diagramE MajorE  A chord diagramE MajorE   A chord diagramE MajorE   A chord diagramE MajorE   A chord diagramE MajorE   A chord diagramE MajorE   A chord diagramE MajorE  A chord diagramE MajorE     A chord diagramE MajorE  A chord diagramE MajorE   A chord diagramE MajorE  A chord diagramE MajorE   A chord diagramE MajorE  A chord diagramE MajorE  A chord diagramE MajorE  A chord diagramE MajorE
-------------------------------|----------------------------|
-----8--11--10--13--10--10--6--|-----6--10--8--10--6-----6--|
-------------------------------|----------------------------|
-------------------------------|----------------------------|
-------------------------------|----------------------------|
-------------------------------|----------------------------|


  A chord diagramE MajorE  A chord diagramE MajorE   A chord diagramE MajorE  A chord diagramE MajorE   A chord diagramE MajorE  A chord diagramE MajorE  A chord diagramE MajorE  A chord diagramE MajorE     A chord diagramE MajorE  A chord diagramE MajorE   A chord diagramE MajorE   A chord diagramE MajorE   A chord diagramE MajorE  A chord diagramE MajorE  A chord diagramE MajorE  A chord diagramE MajorE
----------------------------|-----------------------------|
-----6--10--8--11--8--8-----|-----8--11--10--11--8-----8--|
-------------------------7--|-----------------------------|
----------------------------|-----------------------------|
----------------------------|-----------------------------|
----------------------------|-----------------------------|


  A chord diagramE MajorE  A chord diagramE MajorE   A chord diagramE MajorE   A chord diagramE MajorE   A chord diagramE MajorE   A chord diagramE MajorE   A chord diagramE MajorE  A chord diagramE MajorE     A chord diagramE MajorE  A chord diagramE MajorE   A chord diagramE MajorE  A chord diagramE MajorE   A chord diagramE MajorE  A chord diagramE MajorE  A chord diagramE MajorE  A chord diagramE MajorE
-------------------------------|----------------------------|
-----8--11--10--13--10--10--6--|-----6--10--8--10--6-----6--|
-------------------------------|----------------------------|
-------------------------------|----------------------------|
-------------------------------|----------------------------|
-------------------------------|----------------------------|


  A chord diagramE MajorE  A chord diagramE MajorE   A chord diagramE MajorE  A chord diagramE MajorE   A chord diagramE MajorE  A chord diagramE MajorE  A chord diagramE MajorE  A chord diagramE MajorE     A chord diagramE MajorE  A chord diagramE MajorE   A chord diagramE MajorE   A chord diagramE MajorE   A chord diagramE MajorE  A chord diagramE MajorE  A chord diagramE MajorE  A chord diagramE MajorE
----------------------------|-----------------------------|
-----6--10--8--11--8--8-----|-----8--11--10--11--8-----8--|
-------------------------7--|-----------------------------|
----------------------------|-----------------------------|
----------------------------|-----------------------------|
----------------------------|-----------------------------|


  A chord diagramE MajorE  A chord diagramE MajorE   A chord diagramE MajorE   A chord diagramE MajorE   A chord diagramE MajorE   A chord diagramE MajorE   A chord diagramE MajorE  A chord diagramE MajorE     A chord diagramE MajorE  A chord diagramE MajorE   A chord diagramE MajorE  A chord diagramE MajorE   A chord diagramE MajorE  A chord diagramE MajorE  A chord diagramE MajorE  A chord diagramE MajorE
-------------------------------|----------------------------|
-----8--11--10--13--10--10--6--|-----6--10--8--10--6-----6--|
-------------------------------|----------------------------|
-------------------------------|----------------------------|
-------------------------------|----------------------------|
-------------------------------|----------------------------|


  A chord diagramE MajorE  A chord diagramE MajorE   A chord diagramE MajorE  A chord diagramE MajorE   A chord diagramE MajorE  A chord diagramE MajorE  A chord diagramE MajorE  A chord diagramE MajorE     S S S S S S S S S S S S S S S S
----------------------------|----------------------------------|
-----6--10--8--11--8--8-----|----------------------------------|
-------------------------7--|----------------------------------|
----------------------------|----------------------------------|
----------------------------|----------------------------------|
----------------------------|--5-5-5-5-5-5-5-5-5-5-5-5-5-5-5-5-|


  S S S S S S S S S S S S S S S S    S S S S S S S S S S S S S S S S
----------------------------------|----------------------------------|
----------------------------------|----------------------------------|
----------------------------------|----------------------------------|
----------------------------------|----------------------------------|
----------------------------------|----------------------------------|
--5-5-5-5-5-5-5-5-5-5-5-5-5-5-5-5-|--0-0-0-0-0-0-0-0-0-0-0-0-0-0-0-0-|


  S S S S S S S S S S S S S S S S    S S S S S S S S S S S S S S S S
----------------------------------|----------------------------------|
----------------------------------|----------------------------------|
----------------------------------|----------------------------------|
----------------------------------|----------------------------------|
----------------------------------|--3-3-3-3-3-3-3-3-3-3-3-3-3-3-3-3-|
--0-0-0-0-0-0-0-0-0-0-0-0-0-0-0-0-|----------------------------------|


  S S S S S S S S S S S S S S S S    S S S S S S S S S S S S S S S S
----------------------------------|----------------------------------|
----------------------------------|----------------------------------|
----------------------------------|----------------------------------|
----------------------------------|----------------------------------|
--3-3-3-3-3-3-3-3-3-3-3-3-3-3-3-3-|--1-1-1-1-1-1-1-1-1-1-1-1-1-1-1-1-|
----------------------------------|----------------------------------|


  S S S S S S S S S S S S S S S S    S S S S S S S S S S S S S S S S
----------------------------------|----------------------------------|
----------------------------------|----------------------------------|
----------------------------------|----------------------------------|
----------------------------------|----------------------------------|
--1-1-1-1-1-1-1-1-1-1-1-1-1-1-1-1-|----------------------------------|
----------------------------------|--5-5-5-5-5-5-5-5-5-5-5-5-5-5-5-5-|


  S S S S S S S S S S S S S S S S    S S S S S S S S S S S S S S S S
----------------------------------|----------------------------------|
----------------------------------|----------------------------------|
----------------------------------|----------------------------------|
----------------------------------|----------------------------------|
----------------------------------|----------------------------------|
--5-5-5-5-5-5-5-5-5-5-5-5-5-5-5-5-|--0-0-0-0-0-0-0-0-0-0-0-0-0-0-0-0-|


  S S S S S S S S S S S S S S S S    S S S S S S S S S S S S S S S S
----------------------------------|----------------------------------|
----------------------------------|----------------------------------|
----------------------------------|----------------------------------|
----------------------------------|----------------------------------|
----------------------------------|--3-3-3-3-3-3-3-3-3-3-3-3-3-3-3-3-|
--0-0-0-0-0-0-0-0-0-0-0-0-0-0-0-0-|----------------------------------|


  S S S S S S S S S S S S S S S S    S S S S S S S S S S S S S S S S
----------------------------------|----------------------------------|
----------------------------------|----------------------------------|
----------------------------------|----------------------------------|
----------------------------------|----------------------------------|
--3-3-3-3-3-3-3-3-3-3-3-3-3-3-3-3-|--1-1-1-1-1-1-1-1-1-1-1-1-1-1-1-1-|
----------------------------------|----------------------------------|


  S S S S S S S S S S S S S S S S    S S S S S S S S S S S S S S S S
----------------------------------|----------------------------------|
----------------------------------|----------------------------------|
----------------------------------|----------------------------------|
----------------------------------|----------------------------------|
--1-1-1-1-1-1-1-1-1-1-1-1-1-1-1-1-|----------------------------------|
----------------------------------|--5-5-5-5-5-5-5-5-5-5-5-5-5-5-5-5-|


  S S S S S S S S S S S S S S S S    S S S S S S S S S S S S S S S S
----------------------------------|----------------------------------|
----------------------------------|----------------------------------|
----------------------------------|----------------------------------|
----------------------------------|----------------------------------|
----------------------------------|----------------------------------|
--5-5-5-5-5-5-5-5-5-5-5-5-5-5-5-5-|--0-0-0-0-0-0-0-0-0-0-0-0-0-0-0-0-|


  S S S S S S S S S S S S S S S S    S S S S S S S S S S S S S S S S
----------------------------------|----------------------------------|
----------------------------------|----------------------------------|
----------------------------------|----------------------------------|
----------------------------------|----------------------------------|
----------------------------------|--3-3-3-3-3-3-3-3-3-3-3-3-3-3-3-3-|
--0-0-0-0-0-0-0-0-0-0-0-0-0-0-0-0-|----------------------------------|


  S S S S S S S S S S S S S S S S    S S S S S S S S S S S S S S S S
----------------------------------|----------------------------------|
----------------------------------|----------------------------------|
----------------------------------|----------------------------------|
----------------------------------|----------------------------------|
--3-3-3-3-3-3-3-3-3-3-3-3-3-3-3-3-|--1-1-1-1-1-1-1-1-1-1-1-1-1-1-1-1-|
----------------------------------|----------------------------------|


                                     PM

Almost there ...

Sign in to get your own page with links to favourite songs and more. You are just one click away...

Login with Facebook Login with Google