Log in

One click and you are in

Login with Facebook Login with Google

Why sign up and log in

Guitar Tabs Explorer
American Tourist chords for Breaking 76

Guitar chords with lyrics

#-- File created with Instab - http://www.pconline.com/~smcarey/instab.html


Title: Breaking 76'
Album: Our Way in the Stars

This an absolutely awesome by some absolutely
awesome musicans... d/l this song... it will big
soon enough. This is the only tab of this song
i know of on the net.

This is all my own orginal work.

e-mail me if ya have any questions

-|---x---x----x---x---|--------------------------------
-|---7-\10---/3---3---|--------------------------------
-|---0---0----0---0---|--------------------------------
-|---0---0----0---0---|--------------------------------
-|---7-\10---/3---0---|--------------------------------
-|---0---0----0---3---|--------------------------------
   sometimes i forget what we are...


   guitar 1 - intro and verse (just repeat til chorus)

-|------------------------------------|----------------
-|------------------------------------|----------------
-|---5/9-7-5h7-5-4--5/7-5-4h5-4-2-0---|----------------
-|------------------------------------|----------------
-|------------------------------------|----------------
-|------------------------------------|----------------
   guitar 2 - background in verse

-|---x-----x-----x--------------------------------------
-|---3----\5----\7-----7-/5-\7--/3----------------------
-|---0-----0-----0-----0--0--0---0----------------------
-|---0-----0-----0-----0--0--0---0----------------------
-|---0-----0-----0-----0--0--0---0----------------------
-|---3----\5----\7-----7-/5-\7--/3----------------------
   someone break me...

   both guitars- chorus


   ENJOY! I haven't figured out the jam at the end yet...
   But i will post that when i figure it out

Almost there ...

Sign in to get your own page with links to favourite songs and more. You are just one click away...

Login with Facebook Login with Google