Log in

One click and you are in

Login with Facebook Login with Google

Why sign up and log in

Guitar Tabs Explorer
American Football bass tabs for Heir apparent

Heir Apparen't bass tab by American Football

American Football bass tabs for Heir apparent

Bass tabs

Rhythms / note counts are simplified for brevity.

0:00-0:26
G --------------------------------|
D --------------------------------|
A ------------------------5--8----|
E -6-6-5-3---6--3---8--6----------|

0:27-0:35
G --------------------------------|
D --------------------------------|
A ------------------------5--8----|
E -6-6-5-3---6--8---5--8----------|

0:36-1:12
G --------------------------------|
D --------------------------------|
A ------------------------5--8----|
E -6-6-5-3---6--3---8--6----------|

G --------------------------------|
D --------------------------------|
A ------------------------5--8----|
E -6-6-5-3---6--8---5--8----------|

1:13-1:25
G --------------------------------|
D -5--7-8--10-3--0/10-12----------|
A --------------------------------|
E --------------------------------|

G --------------------------------|
D -5--7-8--10---------------------|
A --------------------------------|
E --------------------------------|

1:26-1:39
G -10-10-10-10--------------------|
D --------------12-12-12-8-8-8----|
A --------------------------------|
E --------------------------------|

G -10-10-10-10--------------------|
D --------------12-12-12-12-------|
A --------------------------------|
E --------------------------------|

G -10-10-10-10--------------------|
D --------------8-8-8-8-----------|
A --------------------------------|
E --------------------------------|

1:40-2:33
G --------------------------------|
D --------------------------------|
A ------------------------5--8----|
E -6-6-5-3---6--3---8--6----------|

G --------------------------------|
D --------------------------------|
A ------------------------5--8----|
E -6-6-5-3---6--8---5--8----------|

2:34-2:55
G --------------------------------|
D -5--7-8--10-3--0/10-12----------|
A --------------------------------|
E --------------------------------|

G --------------------------------|
D -5--7-8--10---------------------|
A --------------------------------|
E --------------------------------|

2:56-3:27
G -10-10-10-10--------------------|
D --------------12-12-12-8-8-8----|
A --------------------------------|
E --------------------------------|

G -10-10-10-10--------------------|
D --------------12-12-12-12-------|
A --------------------------------|
E --------------------------------|

G -10-10-10-10--------------------|
D --------------8-8-8-8-----------|
A --------------------------------|
E --------------------------------|

(Last time)

G -10-10-10-10--------------------|
D --------------8-8-8-8--5-5--8-8-|
A --------------------------------|
E --------------------------------|


3:28-end
G --------------------------------|
D -5--7-8--10-3--0/10-12----------|
A --------------------------------|
E --------------------------------|

G --------------------------------|
D -5--7-8--10---------------------|
A --------------------------------|
E --------------------------------|

Almost there ...

Sign in to get your own page with links to favourite songs and more. You are just one click away...

Login with Facebook Login with Google