Log in

One click and you are in

Login with Facebook Login with Google

Why sign up and log in

Guitar Tabs Explorer
American Authors bass tabs for Best day of my life

Best Day Of My Life bass tab by American Authors

American Authors bass tabs for Best day of my life

Bass tabs with lyrics

Submitted by: Kaare


Intro/Verse

I had a dream so big and loud
I jumped so high I touched the clouds
Wo-o-o-o-o-oh [x2|
G|--------------------------|
D|--------------------------|
A|--5~----5~----------------|
E|--------------3~----3~----|

I stretched my hands out to the sky
We danced with monsters through the night
Wo-o-o-o-o-oh [x2|
G|--------------------------|
D|--------------------------|
A|--5~----5~----------------|
E|--------------3~----3~----|


Pre-Chorus

I'm never gonna look back
Woah, never gonna give it up
No, please don't wake me now
G|--------------------------|
D|--------------------------|
A|--5~----5~----------------|
E|--------------3~----3~----|


Chorus

Oo-o-o-o-oo
This is gonna be the best day of my li-ife
My li-i-i-i-i-ife
G|-----------------------------------------------------|
D|-----------------------------------------------------|
A|--5-5-5-5-5-5-5-5-5-5-5-5-5-5-5-5--------------------|
E|----------------------------------3-3-3-3-3-3-3-3-3--|

Oo-o-o-o-oo
This is gonna be the best day of my li-ife
My li-i-i-i-i-ife
G|-----------------------------------------------------|
D|-----------------------------------------------------|
A|--5-5-5-5-5-5-5-5-5-5-5-5-5-5-5-5--------------------|
E|----------------------------------3-3-3-3-3-3-3-3-3--|


Verse 2

I howled at the moon with friends
And then the sun came crashing in
Wo-o-o-o-o-oh [x2|
G|--------------------------|
D|--------------------------|
A|--5~----5~----------------|
E|--------------3~----3~----|

But all the possibilities
No limits just epiphanies
Wo-o-o-o-o-oh [x2|
G|-----------------------------|
D|-----------------------------|
A|--5--5---5--5----------------|
E|----------------3--3---3--3--|


Pre-Chorus 2

I'm never gonna look back
Woah, never gonna give it up
No, just don't wake me now
G|--------------------------|
D|--------------------------|
A|--5~----5~----------------|
E|--------------3~----3~----|


Chorus 2

Oo-o-o-o-oo
This is gonna be the best day of my li-ife
My li-i-i-i-i-ife
G|-----------------------------------------------------|
D|-----------------------------------------------------|
A|--5-5-5-5-5-5-5-5-5-5-5-5-5-5-5-5--------------------|
E|----------------------------------3-3-3-3-3-3-3-3-3--|

Oo-o-o-o-oo
This is gonna be the best day of my li-ife
My li-i-i-i-i-ife
G|-----------------------------------------------------|
D|-----------------------------------------------------|
A|--5-5-5-5-5-5-5-5-5-5-5-5-5-5-5-5--------------------|
E|----------------------------------3-3-3-3-3-3-3-3-3--|


Bridge

I hear it calling outside my window
I feel it in my soul (soul)
G|--------------------------|
D|--------------------------|
A|--5~----5~----------------|
E|--------------3~----3~----|

The stars were burning so bright
The sun was out 'til midnight
I say we lose control (control)
G|--------------------------|
D|--------------------------|
A|--5~----5~----------------|
E|--------------3~----3~----|


Outro

This is gonna be the best day of my li-ife
My li-i-i-i-i-ife
G|-------------------------------------------------------------------|
D|-------------------------------------------------------------------|
A|--5-5-5-5-5-5-5-5-5-5-5-5-5-5-5-5----------------------------------|
E|----------------------------------3-3-3-3-3-3-3-3-3-3-3-3-3-3-3-3--|

This is gonna be the best day of my li-ife
My li-i-i-i-i-ife
G|-----------------------------------------------------|
D|-----------------------------------------------------|
A|--5-5-5-5-5-5-5-5-5-5-5-5-5-5-5-5--------------------|
E|----------------------------------3-3-3-3-3-3-3-3-3--|

This is gonna be, this is gonna be, this is gonna be
The best day of my life
Everything is looking up, everybody up now
G|-------------------------------------------------------------------|
D|-------------------------------------------------------------------|
A|--5-5-5-5-5-5-5-5-5-5-5-5-5-5-5-5----------------------------------|
E|----------------------------------3-3-3-3-3-3-3-3-3-3-3-3-3-3-3-3--|

This is gonna be the best day of my li-ife
My li-i-i-i-i-ife
G|------------------------------------------------------------------------|
D|------------------------------------------------------------------------|
A|--5-5-5-5-5-5-5-5-5-5-5-5-5-5-5-5---------------------------------5~----|
E|----------------------------------3-3-3-3-3-3-3-3-3-3-3-3-3-3-3-3-------|

Almost there ...

Sign in to get your own page with links to favourite songs and more. You are just one click away...

Login with Facebook Login with Google