Log in

One click and you are in

Login with Facebook Login with Google

Why sign up and log in

Guitar Tabs Explorer
The American Analog Set tabs for Come home baby julie come home

Come Home Baby Julie Come Home tab by The American Analog Set

The American Analog Set tabs for Come home baby julie come home

Guitar tabs

Title: Come Home Baby Julie, Come Home

Album: Promise Of Love

Track: 03

Tabbed By: Shannon McClean (freekorps@hotmail.com)




            Am5
Bm5



A chord diagramE MajorE
--------------------------------------------------------------------------

A chord diagramBB
--------------------------------------------------------------------------

A chord diagramG+G
--------------------------------------------------------------------------

A chord diagramD MajorD
-----------7-------7-------7---------------------0-------0-------0--------

A chord diagramA augmentedA
----0--------0-------0-------0------------9--------9-------9-------9------

A chord diagramE MajorE
--5----5-------5-------5-------5-------7-----7-------7-------7-------7----


Gm5                               Em5


E------------------------------------------------------------------

A------------------------------------------------------------------

D------------------------------------------------------------------

G-----------0--------0--------0-----------------------2-------2----

B-----5--------5--------5-------5-------------2---------2----------

E--3-----3--------3--------3-------3-------0------0--------0-------


          Gm5

E-----------------------

A-----------------------

D-----------------------

G-----------0------0----

B-----5-------5---------

E--3----3-------3-------


Repeat throughout.

Other versions of Come Home Baby Julie Come Home

Come home baby julie come homeChords

Almost there ...

Sign in to get your own page with links to favourite songs and more. You are just one click away...

Login with Facebook Login with Google