Guitar Tabs Explorer
Amen bass tabs for Under the robe

Under The Robe bass tab by Amen

Amen bass tabs for Under the robe

Bass tabs

UNDER THE ROBE
''''''''''''''
STANDARD TUNING
'''''''''''''''

INTRO + VERSE
'''''''''''''
---------------------------------
---------------------------------
---------------------------------
-0-0-13-0-8-0-0-7-0-0-5-0-3-2-2-2

.........

MAIN RIFF
'''''''''

------------------------------------
------------------------------------
------------------------------------
-0-0-0-0-0-0-0-0-0-8-8-8-8-5-5-5-5-5

......................................
'PARANOIA PAYS FOR YOUR SICKNESS' PART
''''''''''''''''''''''''''''''''''''''
-----------------------------------
-----------------------------------
-----------------------------------
-3-3-3-5-5-5-9-9-9-12-12-12-X-X-X-X

.....

OUTRO
'''''

------------------------------------------
------------------------------------------
------------------------------------------
-0-0-0-0-0-0-0-0-0-0-0-0-5-5-5-5-8-8-8-8-8 four or three times

.....
until
'''''

----------------------------------------------------------
----------------------------------------------------------
----------------------------------------------------------
-0-0-0-0-0-0-0-0-0-0-0-0-5-5--5-5--5-5--5-5--5-5--8-8--8-8

-----------------
-----------------
-----------------
-8-8--8-8--8-8--0~
ⓘ Bass guitar tab for 'Under The Robe' by Amen, a metal artist. Amen was born in 1995.