Log in

One click and you are in

Login with Facebook Login with Google

Why sign up and log in

Guitar Tabs Explorer
Amen tabs for Money infection

Guitar tabs with lyrics

Money infection
by amen

tabbed by cincit
Tuning- Drop D= A chord diagramD MajorD A chord diagramA augmentedA A chord diagramD MajorD A chord diagramG+G A chord diagramBB A chord diagramC#C#


INTRO
~~~~~
C------------------------------------------------
B------------------------------------------------
G------------------------------------------------
D------------------------------------------------
A---------------------2222-1111-4444-3333--------
D-2222-1111-4444-3333-2222-1111-4444-3333--------


C------------------------------------------------
B------------------------------------------------
G------------------------------------------------
D------------------------------------------------
A-2222-1111-6/8-6/8-6/8-6/8-2222-1111-4444-2^----
D-2222-1111-6/8-6/8-6/8-6/8-2222-1111-4444-2^----

don't strike the 8's, just slide up to them and then back to strike the 6's

verse (not sure)
~~~~~~~~~~~~~~~

just the lead (i'll figure out the background bit later, but it's hard for me)
C------------------------------------------------
B------------------------------------------------
G------------------------------------------------
D------------------------------------------------
A------------------------2222--------------------
D-0024-02424444-0242-0242-----0024-02424444-0242-

C------------------------------------------------
B------------------------------------------------
G------------------------------------------------
D------------------------------------------------
A-----2222---------------------------------------
D-0242-------------------------------------------

chorus (not sure either but it's roughly alright)
~~~~~~~~~~~~~~~~~~~~~~~~

C------------------------------------------------
B------------------------------------------------
G------------------------------------------------
D------------------------------------------------
A-33333333-4444-3333-33333333-5555-7777----------
D-11111111-4444-3333-11111111-3333-5555----------


break part with the scream of 'i...got your witness'
~~~~~~~~~~~~~~~~~~~~~~~~~~~~~~~~~~~~~~~~~~~~~~~~~

C------------------------------------------------
B------------------------------------------------
G------------------------------------------------
D------------------------------------------------
A-2-55-2-5-555-2-55-2-5-7^-----------------------
D-0-33-0-3-333-0-33-0-3-5^-----------------------


VERSE still not sure
~~~~~~~~~~~~~~~~~~~~

C------------------------------------------------
B------------------------------------------------
G------------------------------------------------
D------------------------------------------------
A------------------------2222--------------------
D-0024-02424444-0242-0242-----0024-02424444-0242-

C------------------------------------------------
B------------------------------------------------
G------------------------------------------------
D------------------------------------------------
A-----2222---------------------------------------
D-0242-------------------------------------------


chorus
~~~~~~

C------------------------------------------------
B------------------------------------------------
G------------------------------------------------
D------------------------------------------------
A-33333333-4444-3333-33333333-5555-7777----------
D-11111111-4444-3333-11111111-3333-5555----------

random bit (the bit with 'were all infected, money infection!)
~~~~~~~~~~~~~~~~~~~~~~~~~~~~~~~~~~~~~~~~~~~~~~~~~

to be looked into


break again (theres a lead i can't figure out in the gaps)
~~~~~~~~~~~~~~~~~~~~~~~~~~~~~~~~~~~~~~~~~~~~~~~~~

C------------------------------------------------
B------------------------------------------------
G------------------------------------------------
D------------------------------------------------
A-2-55-2-5-555-2-55-2-5-7^-(7/)------------------
D-0-33-0-3-333-0-33-0-3-5^-(7/)------------------

slide down from the 7's in brakets to the double 2

'join the navy...' bit
~~~~~~~~~~~~~~~~~~~~~~

C------------------------------------------------
B------------------------------------------------
G------------------------------------------------
D--------------------------------------4~~~~-----
A-2222-1111-6/8-6/8-6/8-6/8-2222-1111------------
D-2222-1111-6/8-6/8-6/8-6/8-2222-1111------------


chorus
~~~~~~

C------------------------------------------------
B------------------------------------------------
G------------------------------------------------
D------------------------------------------------
A-33333333-4444-3333-33333333-5555-7777----------
D-11111111-4444-3333-11111111-3333-5555----------


outro somes right, somes not...
~~~~~~~~~~~~~~~~~~~~~~~~~~~~~~~


C------------------------------------------------
B------------------------------------------------
G------------------------------------------------
D------------------------------------------------
A-55555555-7777-9999-55555555-7777-3333-33333345-
D-33333333-5555-7777-33333333-5555-1111-33333345-

C----------------------
B----------------------
G----------------------
D----------------------
A-33333335 3333333453-|
D-33333335-3333333453-|


PLEASE, correct everything thats wrong and tell me... or make your own tab...

Almost there ...

Sign in to get your own page with links to favourite songs and more. You are just one click away...

Login with Facebook Login with Google