Log in

One click and you are in

Login with Facebook Login with Google

Why sign up and log in

Guitar Tabs Explorer
Amen tabs for Exterminate

Guitar tabs

9. EXTERMINATE!

tabbed by Jon A chord diagramC majorC
Drop A chord diagramD MajorD tuning- DADGBe
Key
~= Let ring out


intro

gtr 1
E-------------------------------------------------------
B-------------------------------------------------------
G-------------------------------------------------------
D--0------------5-------------5-------------5-----------
A--0------5-6-7---------5-6-7---------5-6-7-------------
D--0--5-7---------0-5-7---------0-5-7---------5-5-5-5-0-

end of intro

Both guitars
E-------------
B-------------
G-------------
D-------------
A--7-7--7-7-2-
D--7-7--7-7-2-


verse

Both Guitars
E---------------------------------------------------------------
B---------------------------------------------------------------
G---------------------------------------------------------------
D--------------5---------------5---------------5----------------
A--------5-6-7-----------5-6-7-----------5-6-7---7-7-7--7-7-7-2-
D--0-5-7-----------0-5-7-----------0-5-7---------7-7-7--7-7-7-2-

E--------------------------------------------------------------
B--------------------------------------------------------------
G--------------------------------------------------------------
D--------------5---------------5---------------5---------------
A--------5-6-7-----------5-6-7-----------5-6-7---5-5--5-5-5-0--
D--0-5-7-----------0-5-7-----------0-5-7---------5-5--5-5-5=0--

Chorus

Both guitars
E-------------------------------------------------------
B-------------------------------------------------------
G-------------------------------------------------------
D-----------3-3-3-3-3-3-3-------------------------------
A-0-0-0-0-0-1-1-1-1-1-1-1-3-3-3-3-3-3-3-3--5-5-5-5-5--0-
D-0-0-0-0-0---------------3-3-3-3-3-3-3-3--5-5-5-5-5--0-


break

guitar one
E--------------------------------------------
B--------------------------------------------
G--------------------------------------------
D-------------5-------------5-------------5--
A-------5-6-7---------5-6-7---------5-6-7----
D-0-5-7---------0-5-7---------0-5-7----------BASS JOINS IN ON SECOND
                                             SCALE BEFORE BOTH GUITARS
                                             PLAY
E---------------
B---------------
G---------------
D---------------
A-5-5--5-5-5--0-
D-5-5--5-5-5--0-


verse

Both Guitars

E---------------------------------------------------------------
B---------------------------------------------------------------
G---------------------------------------------------------------
D--------------5---------------5---------------5----------------
A--------5-6-7-----------5-6-7-----------5-6-7---7-7-7--7-7-7-2-
D--0-5-7-----------0-5-7-----------0-5-7---------7-7-7--7-7-7-2-

E--------------------------------------------------------------
B--------------------------------------------------------------
G--------------------------------------------------------------
D--------------5---------------5---------------5---------------
A--------5-6-7-----------5-6-7-----------5-6-7---5-5--5-5-5-0--
D--0-5-7-----------0-5-7-----------0-5-7---------5-5--5-5-5-0--


Chorus

Both guitars
E-------------------------------------------------------
B-------------------------------------------------------
G-------------------------------------------------------
D-----------3-3-3-3-3-3-3-------------------------------
A-0-0-0-0-0-1-1-1-1-1-1-1-3-3-3-3-3-3-3-3--5-5-5-5-5--0-
D-0-0-0-0-0---------------3-3-3-3-3-3-3-3--5-5-5-5-5--0-


Interlude (it begins with the open chord from the chorus ringing out)

guitar one
E--------------------------------------------
B--------------------------------------------
G--------------------------------------------
D--------------------------3-3-3-------------
A~~~~~5-5-5-0-~~~~~~~~~~~~~1-1-1-3-3-3-0~~~~~
D~~~~~5-5-5-0-~~~~~~~~~~~~~~~~~~~3-3-3-0~~~~~

guitar two
E-
B-
G-ANY IDEAS PEOPLE?
D- MANY EFFECTS ON SOMETHING
A-
D-


Pre-final-chorus

Both guitars
E---------------------------------------------------------------
B---------------------------------------------------------------
G---------------------------------------------------------------
D--------------5---------------5---------------5----------------
A--------5-6-7-----------5-6-7-----------5-6-7---7-7-7--7-7-7-2-
D--0-5-7-----------0-5-7-----------0-5-7---------7-7-7--7-7-7-2-

E---------------------------------------------------------------
B---------------------------------------------------------------
G---------------------------------------------------------------
D--------------5---------------5---------------5----------------
A--------5-6-7-----------5-6-7-----------5-6-7---5-5--5-5-5-0---
D--0-5-7-----------0-5-7-----------0-5-7---------5-5--5-5-5-0---


Chorus

Both guitars
E-------------------------------------------------------
B-------------------------------------------------------
G-------------------------------------------------------
D-----------3-3-3-3-3-3-3-------------------------------
A-0-0-0-0-0-1-1-1-1-1-1-1-3-3-3-3-3-3-3-3--5-5-5-5-5--0-
D-0-0-0-0-0---------------3-3-3-3-3-3-3-3--5-5-5-5-5--0-

Almost there ...

Sign in to get your own page with links to favourite songs and more. You are just one click away...

Login with Facebook Login with Google