Log in

One click and you are in

Login with Facebook Login with Google

Why sign up and log in

Guitar Tabs Explorer
Amen chords for Down human

Guitar chords

Amen - Down human
>From the debut album "Amen"
by Metalbith
drop d tuning
intro: open d on bass
there is some weird bit on the guitar, but i'm yet to figure it out


verse

g----7--5----------------------------------------
d----7--5----------------------------------------
a----7--5----------------------------------------
d------------------------------------------------

alternate between the two chords so it sounds right, its easiest to play it
so you are holding down the 5 and use your little finger to hold the 7


pre-chorus

g----------------------------------------
d--3-3--3--3-3--3--3-3--3--3-3-----------
a--3-3--3--3-3--3--3-3--3--3-3----------- X2
d--3-3--3--3-3--3--3-3--3--3-3-----------
stranded...violated

the 2nd time, add a bend on the d string


chorus

g-------------------------------------------
d--0-3-0-3-0-3--(1)---------------------------------
a--0-3-0-3-0-3--(1)---------------------------------
d--0-3-0-3-0-3--(1)----------------------------------
down in a home, human hole, bring down the human etc

the part in brackets is played at the end of the chorus

thats pretty much it, except for a few guitar parts i'm not sure about

enjoy

any comments, send to myfriendofmisery85@hotmail.com

Almost there ...

Sign in to get your own page with links to favourite songs and more. You are just one click away...

Login with Facebook Login with Google