Log in

One click and you are in

Login with Facebook Login with Google

Why sign up and log in

Guitar Tabs Explorer
Amen chords for Coma america

Guitar chords

Amen- Coma America
>From the debut album Amen
by Metalbitch

g-8-7-8-7-8-7-8-7---
d-8-7-8-7-8-7-8-7---
a-6-5-6-5-6-5-6-5---
e-------------------

g------8------7-------8------7-
d------8------7-------8------7-
a------6------5-------6------5-
e-0-0-0--0-0-0--0-0-0---0-0-0--
cut off!

g------8------7-------8------10-
d------8------7-------8------10-
a------6------5-------6------8--
e-0-0-0--0-0-0--0-0-0---0-0-0---


verse
g-----8-----8-----8-----8--------
d-7-7-8-7-7-8-7-7-8-7-7-8---------
a-7-7-6-7-7-6-7-7-6-7-7-6--5-6-5--
e-5-5---5-5---5-5---5-5-----------

this is   .... x3

this is   .... x3

g------8------7-------8------7-
d------8------7-------8------7-
a------6------5-------6------5-
e-0-0-0--0-0-0--0-0-0---0-0-0-
cut off!

g------8------7-------8-------10-
d------8------7-------8-------10-
a------6------5-------6-------8-
e-0-0-0--0-0-0--0-0-0---0-0-0-

this is ...
this is ...
all the ...
this is ...
this is ...
this is ...

a-6-6-5-5-7-7-5-5-6-6-5-5-6-10-10-10------
coma america

this is ...
this is ...
these are ...
polluters of ...

a-6-6-5-5-7-7-5-5-6-6-5-5-6-10-10-10------
coma america

comments to Metalbitch

Almost there ...

Sign in to get your own page with links to favourite songs and more. You are just one click away...

Login with Facebook Login with Google