Log in

One click and you are in

Login with Facebook Login with Google

Why sign up and log in

Guitar Tabs Explorer
Ambrosia bass tabs for Holding on to yesterday

Holding On To Yesterday bass tab by Ambrosia

Ambrosia bass tabs for Holding on to yesterday

Bass tabs with lyrics

Intro:

G|------------------------------------------------------|
D|----------------------------2-2--2-2-3-4--4-----------|
A|----2-2---2--2----------2-------2-2-------------------|
E|--2-----2--2---2--3-3-23-3-----------------2-3-4-5----|

G|------------------------------------------------------|
D|----------------------------2-2--2-2-3-4--4-----------|
A|----2-2---2--2----------2-------2-2-------------------|
E|--2-----2--2---2--3-3-23-3-----------------2-3-4-5----|

Verse:

  Well I keep holdin' on to yesterday I keep holdin' on enough to say That I'm wrong
  So I keep holdin' on to yesterday I keep holdin' on enough to say That it's wrong

G|---------------------------------------------------------------------------------|
D|-------------------------2-2--2-2-3-4-----------------------2----2-2--2-2-234----|
A|----2-2--2-2---------2-------2-2------------2-2--2-2------------------2-2--------|
E|--2-----2-2--2-3-3-23-3----------------2-----2-2--2-3-3-23-3---------------------|


Chorus:

  I keep thinkin' that I'm lonely But it's only missing you inside
  Lord I don't know when I'll see you I can't reach you anymore
  I keep holdin' on to yesterday I keep holdin' on enough to say
G|---------------|-r-|--------------------------------------------|
D|---------------|-e-|--------------------------------------------|
A|-5--5----55----|-s-|-------3-3----33-------2-2---22--2----------|
E|--------5------|-t-|-------------3---------------2-------2------|


  Days that we were once together Seems they'll never come alive
  If I'd only known I'd need you Then I'd keep you like before
  That I'm wrong, wrong, wrong To keep holdin' on My yesterdays have all gone by
G|------------|-r-|--------------------------------------------------------------|
D|------------|-e-|--------------------------------------234--4------------------|
A|-5-5---55---|-s-|---------3-3---33----------2-2---22---------------------------|
E|------5-----|-t-|--------------3-----------------2-----------2-3-4-5-----------|


Outro:

G|---------------------------------------------------------------------------------|
D|-------------------------2-2--2-2-3-4-----------------------2----2-2--2-2-234----|
A|----2-2--2-2---------2-------2-2------------2-2--2-2------------------2-2--------|
E|--2-----2-2--2-3-3-23-3----------------2-----2-2--2-3-3-23-3---------------------|

ⓘ Bass guitar tab for 'Holding On To Yesterday' by Ambrosia, a progressive rock band formed in 1970 from San Pedro, CA USA

Almost there ...

Sign in to get your own page with links to favourite songs and more. You are just one click away...

Login with Facebook Login with Google