Log in

One click and you are in

Login with Facebook Login with Google

Why sign up and log in

Guitar Tabs Explorer
Amatorski bass tabs for Come home

Bass tabs

Tuning: Standard (E A D G)


Bpm 74
 Intro: 00:01

G|--------------------------------|---------------------------------|
D|8-----------7--5----------------|------------------------------7--|
A|-----------------------5--------|6---------8--10-8-------8--10----| x 2
E|--------------------------------|---------------------------------|

 Verse 1: 00:14

G|--------------------------------|---------------------------------|
D|8-----------7--5----------------|------------------------------7--|
A|-----------------------5--------|6---------8--10-8-------8--10----| x 6
E|--------------------------------|---------------------------------|

 Chorus: 00:53

G|--------------------------------|--------------------------------|---------------------------------|
D|--------------------------------|-------------7--5---------------|------------------------------7--|
A|------------5--6------8--10--12-|13-----8----------------5-------|--------5-------6-------8--10----|
E|8-------------------------------|--------------------------------|8--------------------------------|


G|--------------------------------|---------------------------------|
D|8-----------7--5----------------|------------------------------7--|
A|-----------------------5--------|6---------8--10-8-------8--10----| x 2
E|--------------------------------|---------------------------------|

 Verse 2: 01:16

G|--------------------------------|---------------------------------|
D|8-----------7--5----------------|------------------------------7--|
A|-----------------------5--------|6---------8--10-8-------8--10----| x 4
E|--------------------------------|---------------------------------|

 Chorus: 01:43

G|--------------------------------|--------------------------------|---------------------------------|
D|--------------------------------|-------------7--5---------------|------------------------------7--|
A|------------5--6------8--10--12-|13-----8----------------5-------|--------5-------6-------8--10----|
E|8-------------------------------|--------------------------------|8--------------------------------|


G|--------------------------------|---------------------------------|
D|8-----------7--5----------------|------------------------------7--|
A|-----------------------5--------|6---------8--10-8-------8--10----| x 2
E|--------------------------------|---------------------------------|

 Instrumental: 02:05

G|--------------------------------|---------------------------------|
D|8-----------7--5----------------|------------------------------7--|
A|-----------------------5--------|6---------8--10-8-------8--10----| x 6
E|--------------------------------|---------------------------------|

Almost there ...

Sign in to get your own page with links to favourite songs and more. You are just one click away...

Login with Facebook Login with Google