Log in

One click and you are in

Login with Facebook Login with Google

Why sign up and log in

Guitar Tabs Explorer
Amaerican Analog Set tabs for Magnificent seventies

Magnificent Seventies tab by Amaerican Analog Set

Amaerican Analog Set tabs for Magnificent seventies

Guitar tabs

Title: Magnificent Seventies
Album: From Our Living Room To Yours

-------3-----3-----3---3-----3-----3|------|--------------------------------
---------5-----5---------2-----2----|------|--------------------------------
-2-/-4-----4-----4---2-----3-----3--|-0-2-0|--------------------------------
------------------------------------|------|--------------------------------
------------------------------------|------|--------------------------------
------------------------------------|------|--------------------------------
 main riff                           ^occaisionally use this to transition


----------------------------------------------------------------------------
-3-2-0----------------------------------------------------------------------
-------0-2-0-2-0------------------------------------------------------------
-----------------2--0-2-/-4-2-0---------------------------------------------
----------------------------------------------------------------------------
----------------------------------------------------------------------------
 riff for outro (i.e. "do do do do do do de do do dah dah dah dah")


not too difficult, just remember to go slow and let every note ring out.

Almost there ...

Sign in to get your own page with links to favourite songs and more. You are just one click away...

Login with Facebook Login with Google