Log in

One click and you are in

Login with Facebook Login with Google

Why sign up and log in

Guitar Tabs Explorer
Aly And Aj bass tabs for Break yourself

Bass tabs

  • Difficulty: Intermediate
Tuning: Standard (E A D G)


Intro:

G|------------------------------------------------------|
D|-------------------------------4-5--------------------|
A|--0---0---0-0----0---0---0-0--------------------------| x2
E|----3---0-----3----3---0-----3------------------------|


Chorus:

G|------------------------------------------------------|
D|-------------------------------4-5--------------------|
A|--0---0---0-0----0---0---0-0--------------------------| x4
E|----3---0-----3----3---0-----3------------------------|


Verse 1:

G|------------------------------------------------------|
D|-------------------------------4-5--------------------|
A|--0---0---0-0----0---0---0-0--------------------------| x4
E|----3---0-----3----3---0-----3------------------------|


Pre-Chorus:

G|------------------------------------------------------|
D|------------------------------------2-3/5-------------|
A|--3-3-3-0-5-5-5-7-0-0-0-3/5-7-3-3-3-------------------|
E|------------------------------------------------------|

G|------------------------------------------------------|
D|------------------------------------------------------|
A|------------------------------------------------------|
E|-1-1-1-1-3--------------------------------------------|


Instrumental:

G|------------------------------------------------------|
D|-------------------------------4-5--------------------|
A|--0---0---0-0----0---0---0-0--------------------------| x2
E|----3---0-----3----3---0-----3------------------------|

G|------------------------------------------------------|
D|------------------------------------------------------|
A|--0---0---0-0-----------------------------------------|
E|----3---0-----3---------------------------------------|


Verse 2:

G|------------------------------------------------------|
D|-------------------------------4-5--------------------|
A|--0---0---0-0----0---0---0-0--------------------------| x4
E|----3---0-----3----3---0-----3------------------------|


Pre-Chorus:

G|------------------------------------------------------|
D|------------------------------------2-3/5-------------|
A|--3-3-3-0-5-5-5-7-0-0-0-3/5-7-3-3-3-------------------|
E|------------------------------------------------------|

G|------------------------------------------------------|
D|--3-2-0-----------------5-----------------------------|
A|--------3---------------------------------------------|
E|----------3h5p3-3-3-3-3-------------------------------|

G|------------------------------------------------------|
D|------------------------------------2-3/5-------------|
A|--3-3-3-0-5-5-5-7-0-0-0-3/5-7-3-3-3-------------------|
E|------------------------------------------------------|

G|------------------------------------------------------|
D|------------------------------------------------------|
A|------------------------------------------------------|
E|-1-1-1-1-3--------------------------------------------|


Bridge:

No bass from 2:15-2:28


Chorus/Outro:

G|------------------------------------------------------|
D|-------------------------------4-5--------------------|
A|--0---0---0-0----0---0---0-0--------------------------|
E|-0---3--0-----3----3---0-----3------------------------|

G|------------------------------------------------------|
D|-------------------------------4-5--------------------|
A|--0---0---0-0----0---0---0-0--------------------------| x5
E|----3---0-----3----3---0-----3------------------------|


*************************

| h  hammer on
| p  pull off
| /  slide up

*************************

Almost there ...

Sign in to get your own page with links to favourite songs and more. You are just one click away...

Login with Facebook Login with Google