Log in

One click and you are in

Login with Facebook Login with Google

Why sign up and log in

Guitar Tabs Explorer
Alternosfera guitar chords for Timpul

Guitar chords with lyrics

Tuning: Standard (E A D G B E)


Intro:
   w/ distortion
e|---------------------|---------------------|---------------------|---------------------|
B|-----------------0---|----------------0----|---5-----5------0----|---------------0-----|
G|--5------5-----------|--5------5-----------|-----5------5--------|---------------1-----|
D|-----7------7--------|-----7------7--------|---------------------|---3---2---0---2-----|
A|---------------------|---------------------|---------------------|---------------------|
E|---------------------|---------------------|---------------------|---------------------|

Verse 1:
A chord diagramA minorAm
Timpul stoarce nisipul din pietre
  A chord diagramA minorAm
O cas?-ntre dune s?-mi fac
                   A chord diagramG MajorG
O plaj? b?trân? s? am unde apa
   A chord diagramFF              A chord diagramE MajorE
?i malul s-au împ?cat
A chord diagramA minorAm
Timpul a?terne rugina pe ace
   A chord diagramA minorAm
A chord diagramA minorAm via?a cadran m?cinat
 A chord diagramA minorAm               A chord diagramG MajorG
Adun amintiri colorate coperte
 A chord diagramE MajorE
Inele într-un trunchi de copac


Interlude:
A chord diagramA minorAm   |    A chord diagramA minorAm   | A chord diagramA minorAm   A chord diagramB minorBm |  A chord diagramFF   A chord diagramE MajorE  |
A chord diagramA minorAm   |    A chord diagramA minorAm   | A chord diagramA minorAm   A chord diagramB minorBm |  A chord diagramFF   A chord diagramE MajorE  |


Verse 2:
A chord diagramA minorAm
Timpul stoarce nisipul din pietre
  A chord diagramA minorAm
O cas?-ntre dune s?-mi fac
  A chord diagramA minorAm               A chord diagramB minorBm
O plaj? b?trân? s? am unde apa
   A chord diagramFF              A chord diagramE MajorE
?i malul s-au împ?cat
A chord diagramA minorAm
Timpul a?terne rugina pe ace
   A chord diagramA minorAm
A chord diagramA minorAm via?a cadran m?cinat
 A chord diagramA minorAm               A chord diagramB minorBm
Adun amintiri colorate coperte
 A chord diagramE MajorE
Inele într-un trunchi de copac


Chorus:
A chord diagramFF
Pagini de?arte
   A chord diagramFF          A chord diagramG MajorG
În pa?apoarte am
            A chord diagramG#5G#5   A chord diagramE MajorE
Cioplite în palm? linii frânte
A chord diagramFF
Stele r?nite
A chord diagramFF           A chord diagramG MajorG
Neîmplinite cad
           A chord diagramG#5G#5   A chord diagramE MajorE         A chord diagramFF
Gr?bite în titre necitite, o


Verse 3:
A chord diagramA minorAm
Timpul apas? un veac pe tr?gace
     A chord diagramA minorAm
To?i anii mei au dezertat
                  A chord diagramB minorBm
Cum taie firul de iarb? asfaltul
   A chord diagramFF               A chord diagramE MajorE
Pe fa?? un rid m-a t?iat
A chord diagramA minorAm           A chord diagramDmDm
Timpul a?az? traverse-ntre ?ine
  A chord diagramFF                  A chord diagramE MajorE
O scar? de fier am urcat
   A chord diagramA minorAm                  A chord diagramB minorBm
În bra?ele nop?ii pero-ane o mie
        A chord diagramC majorC                A chord diagramE MajorE
Îmi strigau c? e ultimul prag


Interlude:
A chord diagramA minorAm   |    A chord diagramA minorAm   | A chord diagramA minorAm   A chord diagramB minorBm |  A chord diagramFF   A chord diagramE MajorE  |
A chord diagramA minorAm   |    A chord diagramA minorAm   | A chord diagramA minorAm   A chord diagramB minorBm |  A chord diagramFF   A chord diagramE MajorE  |


Chorus:
A chord diagramFF
Pagini de?arte
   A chord diagramFF          A chord diagramG MajorG
În pa?apoarte am
            A chord diagramG#5G#5   A chord diagramE MajorE
Cioplite în palm? linii frânte
A chord diagramFF
Stele r?nite
A chord diagramFF           A chord diagramG MajorG
Neîmplinite cad
           A chord diagramG#5G#5   A chord diagramE MajorE         A chord diagramA minorAm
Gr?bite în titre necitite, o


Outro:

e|---------------------|---------------------|---------------------|---------------------|
B|-----------------0---|----------------0----|----------------0~---|---------(0)---------|
G|--5------5-----------|--5------5-----------|--5------5-----------|---------------------|
D|-----7------7--------|-----7------7--------|-----7------7--------|---------------------|
A|---------------------|---------------------|---------------------|---------------------|
E|---------------------|---------------------|---------------------|---------------------|


************************

|  ~  - vibrato
| ( ) - ghost notes

************************

Almost there ...

Sign in to get your own page with links to favourite songs and more. You are just one click away...

Login with Facebook Login with Google