Log in

One click and you are in

Login with Facebook Login with Google

Why sign up and log in

Guitar Tabs Explorer
Alter Bridge guitar tabs for Watch over you acoustic

Guitar tabs

Notes are correct. Just listen and play


intro and verse

0:00-1:02

D|-0--0-0-0-0----0--0--0-|--0--0-0--0-0--0---0-0-|--0--0-0--0----0--0--0-|
B|-0--0-0-0-10---0-12--0-|--5--5-3--3-3--3---3-0-|--0--0-0--10---0--12-0-|
G|-0--0-0-0-0----0--0--0-|--0--0-0--0-0--0---0-0-|--0--0-0--0----0--0--0-|
D|-0--------10-----12----|--0-------5----5-------|--0-------10------12---|
G|-0--------0------0-----|--5-------5----5-------|--0-------0-------0----|
D|-----------------------|-----------------------|-----------------------|

D|--0--0-0--0-0-0---0---0-0---|
G|--5----5--5-------5---5-5---|
G|--0--0-0--0-0-0---0---0-0---|
D|--0--0-0--5-5-5---0---0-0---|
G|--5----5--5-------5---5-5---|
D|----------------------------|


ending before chorus

1:02-1:07

D|-0--0-0-0-0----0--0--0-|--0--0-0--0-0--0---0-0-|----------------------|
B|-0--0-0-0-10---0-12--0-|--12-0-0--0-0--0---0-0-|--0--0-0--0----0--0-0-|
G|-0--0-0-0-0----0--0--0-|--0--0-0--0-0--0---0-0-|--0--0-0--0----0--0-0-|
D|-0--------10-----12----|--12-0-0--0-0--0---0-0-|--0--0-0--0----0--0-0-|
G|-0--------0------0-----|--0-------0----0-------|--0-------0----0------|
D|-----------------------|-----------------------|--4-------------------|

1:08-1:28

chorus

D|--0-0-0---0--|-0--0-0---0--|--0---0-0-|
B|--3-3-3---3--|-3--3-3---3--|--3---3-3-|
G|--0-0-0---0--|-0--0-0---0--|--0---0-0-|
D|--0-0-0---0--|-0--0-0---0--|--0---0-0-|
G|--4-4-4---4--|-4--4-4---4--|--4---4-4-|
D|--2-2-2---2--|-2--2-2---2--|--2---2-2-|

D|--0-0-0---0--|-0--0-0---0--|--0---0-0-|
B|--3-3-3---3--|-3--3-3---3--|--3---3-3-|
G|--0-0-0---0--|-0--0-0---0--|--0---0-0-|
D|--4-4-4---4--|-4--4-4---4--|--4---4-4-|
G|--2-2-2---2--|-2--2-2---2--|--2---2-2-|
D|-------------|-------------|----------|

D|--0-0-0---0--|-0--0-0---0--|--0---0-0-|
B|--5-5-5---5--|-5--5-5---5--|--5---5-5-|
G|--0-0-0---0--|-0--0-0---0--|--0---0-0-|
D|--0-0-0---0--|-0--0-0---0--|--0---0-0-|
G|--5-5-5---5--|-5--5-5---5--|--5---5-5-|
D|-------------|-------------|----------|

D|--0---0------|-------------|----------|
B|--0---0------|-------------|----------|
G|--4---4---0--|-0--0-0---0--|--0---0-0-|
D|--0---0---0--|-0--0-0---0--|--0---0-0-|
G|--0---0---0--|-0--0-0---0--|--0---0-0-|
D|----------4--|-4--4-4---4--|--4---4-4-|

D|--0-0-0---0--|-0--0-0---0--|--0---0-0-|
B|--3-3-3---3--|-3--3-3---3--|--3---3-3-|
G|--0-0-0---0--|-0--0-0---0--|--0---0-0-|
D|--0-0-0---0--|-0--0-0---0--|--0---0-0-|
G|--4-4-4---4--|-4--4-4---4--|--4---4-4-|
D|--2-2-2---2--|-2--2-2---2--|--2---2-2-|

D|--0-0-0---0--|-0--0-0---0--|--0---0-0-|
B|--3-3-3---3--|-3--3-3---3--|--3---3-3-|
G|--0-0-0---0--|-0--0-0---0--|--0---0-0-|
D|--4-4-4---4--|-4--4-4---4--|--4---4-4-|
G|--2-2-2---2--|-2--2-2---2--|--2---2-2-|
D|-------------|-------------|----------|

D|--0----------|
G|--5----------|
G|--0----------|
D|--0----------|
G|--5----------|
D|-------------|


NOW PLAY THAT'S ALL AGAIN

now instead of one stroke in chorus ending

D|--0---0---0--|--0---0---0--|--0---0---0--|
G|--5---5---5--|--5---5---5--|--5---5---5--|
G|--0---0---0--|--0---0---0--|--0---0---0--|
D|--0---0---0--|--0---0---0--|--0---0---0--|
G|--5---5---5--|--5---5---5--|--5---5---5--|
D|-------------|-------------|-------------|

2:24-2:34

D|-------------------------|-------------------------------|
B|-10-12-13-13-13-10-10-12-|-12-12-12-15-15-15-13-12-13-12-|
G|--0--0--0--0--0--0--0--0-|--0--0--0--0--0--0--0--0-------|
D|--0--0--0--0--0--0--0--0-|--0--0--0--0--0--0--0--0-------|
G|--0--0--0--0--0--0--0--0-|--0--0--0--0--0--0--0--0-------|
D|-------------------------|-------------------------------|


D|-------------------------|-------------------------------|
B|-10-12-13-13-13-10-10-12-|-12-12-12-12-12--0--0--0--0----|
G|--0--0--0--0--0--0--0--0-|--0--0--0--0--0--0--0--0--0----|
G|--0--0--0--0--0--0--0--0-|--0--0--0--0--0--0--0--0--0----|
G|--0--0--0--0--0--0--0--0-|--0--0--0--0--0--0--0--0--0----|
D|-------------------------|-----------------4--4--4--4----|

2:35-2:59
D|--0-0-0---0--|-0--0-0---0--|--0---0-0-|
B|--3-3-3---3--|-3--3-3---3--|--3---3-3-|
G|--0-0-0---0--|-0--0-0---0--|--0---0-0-|
D|--0-0-0---0--|-0--0-0---0--|--0---0-0-|
G|--4-4-4---4--|-4--4-4---4--|--4---4-4-|
D|--2-2-2---2--|-2--2-2---2--|--2---2-2-|

D|--0-0-0---0--|-0--0-0---0--|--0---0-0-|
B|--5-5-5---5--|-5--5-5---5--|--5---5-5-|
G|--0-0-0---0--|-0--0-0---0--|--0---0-0-|
D|--0-0-0---0--|-0--0-0---0--|--0---0-0-|
G|--5-5-5---5--|-5--5-5---5--|--5---5-5-|
D|-------------|-------------|----------|

D|--0-0-0---0--|-0--0-0---0--|--0---0-0-|
G|--0-0-0---0--|-0--0-0---0--|--0---0-0-|
G|--0-0-0---0--|-0--0-0---0--|--0---0-0-|
D|--0-0-0---0--|-0--0-0---0--|--0---0-0-|
G|--0-0-0---0--|-0--0-0---0--|--0---0-0-|
D|-------------|-------------|----------|

D|--0-0-0---0--|-0--0-0---0--|--0---0-0-|
G|--7-7-7---7--|-7--7-7---7--|--7---7-7-|
G|--0-0-0---0--|-0--0-0---0--|--0---0-0-|
D|--0-0-0---0--|-0--0-0---0--|--0---0-0-|
G|--7-7-7---7--|-7--7-7---7--|--7---7-7-|
D|-------------|-------------|----------|

D|--0-0-0---0--|-0--0-0---0--|--0---0-0-|
B|--3-3-3---3--|-3--3-3---3--|--3---3-3-|
G|--0-0-0---0--|-0--0-0---0--|--0---0-0-|
D|--0-0-0---0--|-0--0-0---0--|--0---0-0-|
G|--4-4-4---4--|-4--4-4---4--|--4---4-4-|
D|--2-2-2---2--|-2--2-2---2--|--2---2-2-|

D|--0-0-0---0--|-0--0-0---0--|--0---0-0-|
B|--5-5-5---5--|-5--5-5---5--|--5---5-5-|
G|--0-0-0---0--|-0--0-0---0--|--0---0-0-|
D|--0-0-0---0--|-0--0-0---0--|--0---0-0-|
G|--5-5-5---5--|-5--5-5---5--|--5---5-5-|
D|-------------|-------------|----------|

D|--0-0-0---0--|-0--0-0---0--|--0---0-0-|
G|--0-0-0---0--|-0--0-0---0--|--0---0-0-|
G|--0-0-0---0--|-0--0-0---0--|--0---0-0-|
D|--0-0-0---0--|-0--0-0---0--|--0---0-0-|
G|--0-0-0---0--|-0--0-0---0--|--0---0-0-|
D|-------------|-------------|----------|

D|--0-0-0---0--|-0--0-0---0--|--0---0-0-|
G|--7-7-7---7--|-7--7-7---7--|--7---7-7-|
G|--0-0-0---0--|-0--0-0---0--|--0---0-0-|
D|--0-0-0---0--|-0--0-0---0--|--0---0-0-|
G|--7-7-7---7--|-7--7-7---7--|--7---7-7-|
D|-------------|-------------|----------|

D|--0-0-0---0--|-0--0-0---0--|--0---0-0-|
B|--3-3-3---3--|-3--3-3---3--|--3---3-3-|
G|--0-0-0---0--|-0--0-0---0--|--0---0-0-|
D|--0-0-0---0--|-0--0-0---0--|--0---0-0-|
G|--4-4-4---4--|-4--4-4---4--|--4---4-4-|
D|--2-2-2---2--|-2--2-2---2--|--2---2-2-|


G|--5----------|-------------|----------||
G|--5----------|-------------|----------|
G|--0----------|-------------|----------|
D|--0----------|-------------|----------|
G|--5----------|-------------|----------|
D|-------------|-------------|----------|

3:00 3:11
D|-0--0-0-0-0----0--0--0-|--0--0-0--0-0--0---0-0-|--0--0-0--0----0--0--0-|
B|-0--0-0-0-10---0-12--0-|--5--5-3--3-3--3---3-0-|--0--0-0--10---0--12-0-|
G|-0--0-0-0-0----0--0--0-|--0--0-0--0-0--0---0-0-|--0--0-0--0----0--0--0-|
D|-0--------10-----12----|--0-------5----5-------|--0-------10------12---|
G|-0--------0------0-----|--5-------5----5-------|--0-------0-------0----|
D|-----------------------|-----------------------|-----------------------|

G|--0--0--0--0--|-----------------|
B|--12-12-12-12-|-----------------|
G|--0--0--0--0--|-0-0-0-0--0--0---|
G|--0--0--0--0--|-0-0-0-0--0--0---|
G|--12-12-12-12-|-0-0-0-0--0--0---|
D|--------------|-4-4-4-4--4--4---|

chours
3:12-3:51

D|--0-0-0---0--|-0--0-0---0--|--0---0-0-|
B|--3-3-3---3--|-3--3-3---3--|--3---3-3-|
G|--0-0-0---0--|-0--0-0---0--|--0---0-0-|
D|--0-0-0---0--|-0--0-0---0--|--0---0-0-|
G|--4-4-4---4--|-4--4-4---4--|--4---4-4-|
D|--2-2-2---2--|-2--2-2---2--|--2---2-2-|

D|--0-0-0---0--|-0--0-0---0--|--0---0-0-|
B|--3-3-3---3--|-3--3-3---3--|--3---3-3-|
G|--0-0-0---0--|-0--0-0---0--|--0---0-0-|
D|--4-4-4---4--|-4--4-4---4--|--4---4-4-|
G|--2-2-2---2--|-2--2-2---2--|--2---2-2-|
D|-------------|-------------|----------|

D|--0-0-0---0--|-0--0-0---0--|--0---0-0-|
B|--5-5-5---5--|-5--5-5---5--|--5---5-5-|
G|--0-0-0---0--|-0--0-0---0--|--0---0-0-|
D|--0-0-0---0--|-0--0-0---0--|--0---0-0-|
G|--5-5-5---5--|-5--5-5---5--|--5---5-5-|
D|-------------|-------------|----------|

D|--0---0------|-------------|----------|
B|--0---0------|-------------|----------|
G|--4---4---0--|-0--0-0---0--|--0---0-0-|
D|--0---0---0--|-0--0-0---0--|--0---0-0-|
G|--0---0---0--|-0--0-0---0--|--0---0-0-|
D|----------4--|-4--4-4---4--|--4---4-4-|

D|--0-0-0---0--|-0--0-0---0--|--0---0-0-|
B|--3-3-3---3--|-3--3-3---3--|--3---3-3-|
G|--0-0-0---0--|-0--0-0---0--|--0---0-0-|
D|--0-0-0---0--|-0--0-0---0--|--0---0-0-|
G|--4-4-4---4--|-4--4-4---4--|--4---4-4-|
D|--2-2-2---2--|-2--2-2---2--|--2---2-2-|

D|--0-0-0---0--|-0--0-0---0--|--0---0-0-|
B|--3-3-3---3--|-3--3-3---3--|--3---3-3-|
G|--0-0-0---0--|-0--0-0---0--|--0---0-0-|
D|--4-4-4---4--|-4--4-4---4--|--4---4-4-|
G|--2-2-2---2--|-2--2-2---2--|--2---2-2-|
D|-------------|-------------|----------|


D|--0-0-0---0--|-0------------|----------|
B|--5-5-5---5--|-5--0--0--0---|--0---0-0-|
G|--0-0-0---0--|-0--5--4--2---|--0---0-0-|
D|--0-0-0---0--|-0--0--0--0---|--0---0-0-|
G|--5-5-5---5--|-5--5--4--2---|--0---0-0-|
D|-------------|----0--0--0---|--0---0-0-|

D|--0-0-0---0--|-0--0-0---0--|--0---0-0-|
B|--3-3-3---3--|-3--3-3---3--|--3---3-3-|
G|--0-0-0---0--|-0--0-0---0--|--0---0-0-|
D|--0-0-0---0--|-0--0-0---0--|--0---0-0-|
G|--4-4-4---4--|-4--4-4---4--|--4---4-4-|
D|--2-2-2---2--|-2--2-2---2--|--2---2-2-|

D|--0-0-0---0--|-0--0-0---0--|--0---0-0-|
B|--3-3-3---3--|-3--3-3---3--|--3---3-3-|
G|--0-0-0---0--|-0--0-0---0--|--0---0-0-|
D|--4-4-4---4--|-4--4-4---4--|--4---4-4-|
G|--2-2-2---2--|-2--2-2---2--|--2---2-2-|
D|-------------|-------------|----------|

D|--0-0-0---0--|-0--0-0---0--|--0---0-0-|
B|--5-5-5---5--|-5--5-5---5--|--5---5-5-|
G|--0-0-0---0--|-0--0-0---0--|--0---0-0-|
D|--0-0-0---0--|-0--0-0---0--|--0---0-0-|
G|--5-5-5---5--|-5--5-5---5--|--5---5-5-|
D|-------------|-------------|----------|

D|--0---0------|-------------|----------|
B|--0---0------|-------------|----------|
G|--4---4---0--|-0--0-0---0--|--0---0-0-|
D|--0---0---0--|-0--0-0---0--|--0---0-0-|
G|--0---0---0--|-0--0-0---0--|--0---0-0-|
D|----------4--|-4--4-4---4--|--4---4-4-|

D|--0-0-0---0--|-0--0-0---0--|--0---0-0-|
B|--3-3-3---3--|-3--3-3---3--|--3---3-3-|
G|--0-0-0---0--|-0--0-0---0--|--0---0-0-|
D|--0-0-0---0--|-0--0-0---0--|--0---0-0-|
G|--4-4-4---4--|-4--4-4---4--|--4---4-4-|
D|--2-2-2---2--|-2--2-2---2--|--2---2-2-|

D|--0-0-0---0--|-0--0-0---0--|--0---0-0-|
B|--3-3-3---3--|-3--3-3---3--|--3---3-3-|
G|--0-0-0---0--|-0--0-0---0--|--0---0-0-|
D|--4-4-4---4--|-4--4-4---4--|--4---4-4-|
G|--2-2-2---2--|-2--2-2---2--|--2---2-2-|
D|-------------|-------------|----------|

G|--0-0-0---0--|
B|--5-5-5---5--|
G|--0-0-0---0--|
D|--0-0-0---0--|
G|--5-5-5---5--|
D|-------------|


ending
3:57-4:22
D|-0--0-0-0-0----0--0--0-|--0--0-0--0-0--0---0-0-|--0--0-0--0----0--0--0-|
B|-0--0-0-0-10---0-12--0-|--5--5-3--3-3--3---3-0-|--0--0-0--10---0--12-0-|
G|-0--0-0-0-0----0--0--0-|--0--0-0--0-0--0---0-0-|--0--0-0--0----0--0--0-|
D|-0--------10-----12----|--0-------5----5-------|--0-------10------12---|
G|-0--------0------0-----|--5-------5----5-------|--0-------0-------0----|
D|-----------------------|-----------------------|-----------------------|

D|--0--0-0--0-0-0---0---0-0---|
B|--5--5-5--5-5-5---5---5-5---|
G|--0--0-0--0-0-0---0---0-0---|
D|--0--0-0--5-5-5---0---0-0---|
G|--5----5--5-------5---5-5---|
D|----------------------------|

Other versions of Watch Over You Acoustic

Watch over youChords
Watch over you acousticChords

Almost there ...

Sign in to get your own page with links to favourite songs and more. You are just one click away...

Login with Facebook Login with Google