Log in

One click and you are in

Login with Facebook Login with Google

Why sign up and log in

Guitar Tabs Explorer
Alter Bridge tabs for Broken wings

Guitar tabs

tabbed by boon('_')

its not exactly the same as the song,but i m sure its very very
close to it, its my first tab, so pardon me if i hv mistaken newher....
tuning(B,A,D,G,B,E)
h-hammer on
/-slide up
-slide down
~-vibrate

|-------------------------|
|---------9---7----------|
|---------9h107----------|
|----------------9--------|
|-------------------------|
|-0-----------------------|


|-------------------------|
|-------------------------|
|-------------------------|
|-----12-9-11--9----11-12-|
|---/9------0--0--0-------|
|-------------------------|


|---------|---------------|
|---------|------------12-|
|---------|---------------|
|----11-7-|----9--9-------|
|--0------|---------------|
|---------|-/8---8--8-----|

|-------------------------|
|------10-10h12--10-------|
|---9---------------11-9--|
|-------------------------|
|-------------------------|
|-------------------------|


|-------------------------|
|-------------------------|
|---------------11--9-----|
|------8---8----------9---|
|-------------------------|
|---/7---7---7------------|


|------------------------|
|--9h11-11-9-------------|
|------------12----------|
|------------------------|
|------------------------|
|------------------------|


|-------------------------|
|-------15-14-12----------|
|----------------11-------|
|-------------------------|
|-------------------------|
|-0-----------------------|


|-------------------------|
|-------------------------|
|--------------------7----|
|---12-9--11--9--7h9---9--|
|-/9-------0--0-----------|
|-------------------------|


|-------------------------|
|-------------------------|
|-7h9-9/11----------------|
|----------12~------------|
|-------------------------|
|-------------------------|


|-------------------------|
|----------12---10-10h12--|
|-------------9-----------|
|---9--9------------------|
|-------------------------|
|-/8--8--8----------------|


|--------|----------------|
|-10-----|-----------------|
|---11-9-|----------11-9--|
|--------|---8--8---------|
|--------|-----------------|
|--------|-/7--7--7--------|


|-------------------------|
|-------------------------|
|--9-9/11-----------------|
|-------------------------|
|-------------------------|
|-------------------------|

|------------------|
|------------------|
|------------------|
|-----4---5-4---4--|
|---5---5-----5----|
|-3----------------|

|------------------|
|------------------|
|------------------|
|-----4---5-4---4--|
|---7---7-----7----|
|-5----------------|

|------------------|
|------------------|
|------------------| X2
|-----4---5-4-2--4-|
|---2---2----------|
|-0----------------|

play d last 3 parts twice i.e. aftr finishing it once,play one more time, 'only d last 3 parts,ok!'....... plz leave ur comments...

Other versions of Broken Wings

Broken wingsChords

Almost there ...

Sign in to get your own page with links to favourite songs and more. You are just one click away...

Login with Facebook Login with Google