Log in

One click and you are in

Login with Facebook Login with Google

Why sign up and log in

Guitar Tabs Explorer
Allman Brothers bass tabs for Whippin post

Bass tabs

WHIPPIN POST

Original music by    Gregg Allman
Bass performance by   Berry Oakley
Performance on     Idlewild South


INTRODUCTION:
e s s s s e s s s s   e s s s s e e
+------------------------+------------------+
|*6:---------------------|5:---------------*|
|*8:---------------------|8:-----------5-3-*|
+----5-5-3-5-3-5-5-3-5-3-+---5-5-3-5-3------+


VERSE:
s e s e s e s e s e s e e s s e 7 s e s e s e s e s e s e e^e^e
+--------------------------------------+-------------------------------+
|*12:-7-7-7-7---------7-7-7-7-5-------*|-7-7-7-7---------7-7-7-7-------|
|* 8:---------------------------7-5-3-*|-------------------------0-3-4-|
+-------------5-5-5-5------------------+---------5-5-5-5---------------+


CHORUS:
Q q e Q e e e  e^e^e e^e^e e^e^e e^e^e  Q e^e^e Q e^e^e 3 e q Q H
+---------------+-------------------------+-------------------+---------+
|---------------|-------------------------|*---------0-------*|---R-R-R-|
|-5-5-0-5-0-3-4-|-------------------------|*-0-3-4-0---------*|-3-------|
+---------------+-0-0-0-2-2-2-3-3-3-4-4-4-+------------0-3-4--+---------+

REPEAT INTRO AFTER CHORUS

BRIDGE:
 s e s e s e s e s e s e s e s e  s e s e s e s e s e s e s e s e
+---------------------------------+---------------------------------+
|---------------------------------|---------------------------------|
|-0-0-0-0-2-2-2-2-3-3-3-3-5-5-5-5-|---------------------------------|
+---------------------------------+-0-0-0-0-2-2-2-2-3-3-3-3-5-5-5-5-+

 s e s e s e s e s e s e s e s e s s e s e s e s e s e s e s Q Q H
+---------------------------------+--------------------------+-------+
|-------------------------2-2-2-2-|-4-4-4-4-5-5-5-5-6-6-6-6-*|-------|
|-2-2-2-2-3-3-3-3-5-5-5-5---------|-------------------------*|-0-0-0-|
+---------------------------------+--------------------------+-------+
 Q Q H   e q Q e q Q  e q Q e q Q 2
+-------+--------------+--------------+
|-------|*-----R-----R-|-----R-----R-*|
|-0-0-0-|*-0-0---2-2---|-3-3---2-2---*|
+-------+--------------+--------------+


e q Q
+---------+
|6:---R-R-|
|8:-0-----|
+---------+


---

Almost there ...

Sign in to get your own page with links to favourite songs and more. You are just one click away...

Login with Facebook Login with Google