Log in

One click and you are in

Login with Facebook Login with Google

Why sign up and log in

Guitar Tabs Explorer
Allman Brothers bass tabs for Statesboro blues

Statesboro Blues bass tab by Allman Brothers

Allman Brothers bass tabs for Statesboro blues

Bass tabs with lyrics

Statesboro Blues
          By Allman Brothers Band
Bass Tab (corrected version)
                        as played by E.Blanchard
     Key of D
G---||----------------------|--r--r--r--r--|-----------------|--r--r----
D---||*--4:-----------------|--e--e--e--e--|-----------------|--e--e----
A---||*--4:-----3-----3--5--|--s--s--s--s--|-----3-----3--5--|--s--s----
E---||-------5-----5--------|--t--t--t--t--|--5-----5--------|--t--t----
       Intro


G---r--r--|-----------------|--r--r--r--r--|-----------------|--r--r----
D---e--e--|-----------------|--e--e--e--e--|-----------------|--e--e----
A---s--s--|-----3-----3--5--|--s--s--s--s--|-----3-----3--5--|--s--s----
E---t--t--|--5-----5--------|--t--t--t--t--|--5-----5--------|--t--t----


                    G
G---r--r--|--------------------------|--------------|--------------|----
D---e--e--|--------3--3--------------|--------------|--------------|----
A---s--s--|--5--5--------5--5--3--3--|--------------|--------------|----
E---t--t--|--------------------------|--3--3--3--3--|--3--3--3--3--|----
                    1st Part

           G
G------------------|--------------|--------------|--------------|-------
D------------------|--------------|--------------|--------------|-------
A------------2--3--|--5--5--5--5--|--5--5--5--5--|--5--5--5--5--|--5----
E---3--3--3--------|--------------|--------------|--------------|-------


              A             G
G------------------------|--------------------------|-------------------
D------------------------|--------------------------|-------------------
A---5--------------------|--------4--4--5--5--7--7--|--------2--2--3----
E------2--2--3--3--4--4--|--5--5--------------------|--3--3-------------

        D             A
G------------|--------------------------|---------------||--------------
D------------|--------------------------|--------------*||--------------
A---3--4--4--|--5--5--------------------|--------------*||--------------
E------------|--------2--2--3--3--4--4--|--5--5--5--5---||--------------


  D
G---------------------------|--------------------------|----------------
D---------4--4--5--5--6--7--|--------------------------|----------------
A---5--5--------------------|--5--5--3--3--2--2--------|--------2--2----
E---------------------------|--------------------5--5--|--3--3----------
  Variation


G---------------|--------------------------|----------------------------
D---------------|--------------------------|----------------------------
A---3--3--4--5--|--------2--2--3--3--4--4--|--5--5--3--3--2--2----------
E---------------|--3--3--------------------|--------------------5--5----


G---|--------------------------|--------------------------|-------------
D---|--------------------------|--------------------------|-------------
A---|--5--5--------------------|--------4--4--5--5--6--7--|--------2----
E---|--------2--2--3--3--4--4--|--5--5--------------------|--3--3-------


G------------------|--------------------------|-------------------------
D------------------|--------------------------|-------------------------
A---2--3--3--4--4--|--5--5--3--3--2--2--------|-------------------------
E------------------|--------------------6--6--|--5--5--5--5--5--5-------


G---||------------------------------------------------------------------
D---||------------------------------------------------------------------
A---||------------------------------------------------------------------
E---||------------------------------------------------------------------




==            TABLATURE EXPLANATION            ==


----------        ----------        ----t---
----5h8--- Hammeron    ----(8)--- Ghost     ----6--- Tap
----------        ---------- Note      --------
----5p8--- Pulloff    ----------        --------

----------        ----------        -----p--
----5/8--- Slide Up    -----x---- Dead      -----7-- Pop
----------        ---------- Note      --s-----
----5\8--- Slide Down   ----------        --5----- Slap

----------        ||------|| Repeat     --------
----5~~~-- Vibrato    ||*----*||        ---5^--- Bend
----------        ||*----*||        --------
----------        ||------||        --------

----------        ----------        --------
-4:------- Time      ----------        --------
-4:------- Signature   ----------        --------
----------        ----------        --------

Rhythm:
 w = whole note      W = dotted whole
 h = half note       H = dotted half
 q = quarter note     Q = dotted quarter
 e = eighth note      E = dotted eighth
 s = sixteenth note    S = dotted sixteenth
 t = 32nd note       T = dotted 32nd
 x = 64th note       X = dotted 64th
 ^ = triplet

Almost there ...

Sign in to get your own page with links to favourite songs and more. You are just one click away...

Login with Facebook Login with Google