Log in

One click and you are in

Login with Facebook Login with Google

Why sign up and log in

Guitar Tabs Explorer
Allman Brothers tabs for Seven turns

Guitar tabs with lyrics

I've added some guitar parts and fixed chords and lyrics.

Guitar #1, pick the opening chords...

      A chord diagramG+G           A chord diagramC majorC        A chord diagramD MajorD
|-----------------------------------2--0-----------|
|--------------------------------3--------3--------|
|--------------0--------0-----2--------------2--0--|
|-----------0--------2-----0-----------------------|
|--------2--------3--------------------------------|
|-----3--------------------------------------------|

Guitar #2, the slide intro (standard tuning)

|--------------------------------------------------|
|-------------------------12\--10----------12/--10-|
|---2--/4--0--2-h4--2-------------12--/14----------|
|-0------------------------------------------------|
|--------------------------------------------------|
|--------------------------------------------------|


Verse 1:
A chord diagramC majorC                  A chord diagramG+G
A chord diagramC majorC                  A chord diagramG+G
A chord diagramC majorC                       A chord diagramG+G             A chord diagramE minorEm
A chord diagramC majorC         A chord diagramG/BG/B     A chord diagramD MajorD


Verse 2:

*note: lately Dickey has been singing this line:
You hear the crossroads cryin'


Chorus (guitar #1 intro style)

A chord diagramG+G          A chord diagramC majorC            A chord diagramD MajorD
Somebody's ...
A chord diagramG+G          A chord diagramC majorC            A chord diagramD MajorD
*C    A chord diagramG/BG/B      A chord diagramA minorAm       A chord diagramG+G
*Em               A chord diagramC majorC         A chord diagramD MajorD

*(play first two bass notes of chord, then strum remaining strings)

Chords under first solo:

A chord diagramG+G   A chord diagramC majorC   A chord diagramD MajorD
A chord diagramG+G   A chord diagramC majorC   A chord diagramD MajorD
A chord diagramC majorC   A chord diagramG+G
A chord diagramC majorC   A chord diagramG+G
A chord diagramC majorC   A chord diagramG+G   A chord diagramE minorEm
A chord diagramC majorC  A chord diagramG/BG/B  A chord diagramA minorAm
A chord diagramG+G   A chord diagramB7B7  A chord diagramC majorC
A chord diagramG+G  A chord diagramD/F#D/F#  A chord diagramB7B7
A chord diagramE minorEm  A chord diagramC majorC   A chord diagramD MajorD


Verse 3:

Repeat Verse 1

Chorus w/ response

Chords under Outro Solo:

A chord diagramC majorC    A chord diagramG+G
A chord diagramC majorC    A chord diagramG+G
A chord diagramC majorC    A chord diagramG+G
A chord diagramE minorEm  A chord diagramC majorC  A chord diagramD MajorD
(repeat to fade)

Other versions of Seven Turns

Seven turnsChords

Almost there ...

Sign in to get your own page with links to favourite songs and more. You are just one click away...

Login with Facebook Login with Google