Log in

One click and you are in

Login with Facebook Login with Google

Why sign up and log in

Guitar Tabs Explorer
Allman Brothers bass tabs for Melissa

Bass tabs

Basstab by Jan Bjorklund, Finland;
jani_bjorklund@yahoo.se
You are welcome to request for basstabs!
Bienvenidos a pedirme transcripciones para el bajo!
Be sure to use a monospaced font!

TablEdited by Jan Bjorklund for Ron

Tuning : E A D G 	Time Signature: 4/4

 |    |    |    |    |    |    |    |
|--------------------------------|--------------------------------|
|------------------- 3 bar intro without bass --------------------|
|--------------------------------|--------------------------------|
|--------------------------------|--------------------------------|

 |    |    |    |    tempo 81|    |    |
|--------------------------------|4h------------------------------|
|--------------------------------|--------6-------4-------2-------|
|--------------------------------|----------------------------4---|
|--------------------------------|--------------------------------|

 |    |  Crossroads...    |    |    seem to come and
|--------------------------------|--------------------------------|
|--------2-----------------------|--------------------2---2-------|
|----------------2h4-2-----------|----------------2-4---------4---|
|0-----------------------4---2---|2-------------------------------|

 |    |    |    |    |    |    |    |
|--------------------------------|--------------------------------|
|--------------------2---2-------|--------------------2---2-------|
|----------------2-4---------4---|----------------2-4---------4---|
|4-------------------------------|2-------------------------------|

 |    |    |    |    |    |    |    |
|--------------------------------|--------------------------------|
|--------2-----------------------|--------------------2---2-------|
|----------------2h4-2-----------|--------------2-2-4---------4---|
|0-----------------------4---0---|2-------------------------------|

 |    Knowing many, loving... |    |    |    |
|--------------------------------|--------------------------------|
|--------------------------------|----------------0-------0-------|
|0-------0-------2-------2-------|4-------4-----------------------|
|--------------------------------|--------------------------------|

 |    |    |    |    |    |    |    |
|--------------------------------|1-------1-------2---2---2-------|
|2-------2-------4-------4-------|----------------------2---2-----|
|--------------------------------|----------------------------0---|
|----0---------------------------|--------------------------------|

 |    But, back home...    |    |    |    |
|------------------------2-------|--------------------------------|
|--------------------0h2-----2p0-|--------------------------------|
|3---------------3---------------|2-------------------------------|
|------3-0---3-------------------|--------------------------------|

 Melissa |    |    |    |    |    |    |
|--------------------------------|--------------------------------|
|--------2-----------------------|--------------------2---2-------|
|----------------2h4-2-----------|----------------2-4---------4---|
|0-----------------------4---0---|2-------------------------------|

 m.mmmmm |    |    |    |    |    |    |
|--------------------------------|--------------------------------|
|--------------------2---2-------|------------4-5/--------2-------|
|----------------2-4---------4---|----------------------------4---|
|4-------------------------------|2-------------------------------|

 |    |  Freight train...   |    |    |    |
|--------------------------------|--------------------------------|
|--------------------------------|--------------------2---2-------|
|----------------2h4-2-----------|--------------2-2-4---------4---|
|0-----------------------4---0---|2-------------------------------|

 |    |    |    |    |    |    |    |
|--------------------------------|--------------------------------|
|--------------------2---2-------|--------------------2---2-------|
|----------------2-4---------4---|----------------2-4---------4---|
|4-------------------------------|2---2---------------------------|

 |    |    |    |    |    |    |    |
|--------------------------------|--------------------------------|
|--------2-----------------------|--------------------2---2-------|
|----------------2-4-2-----------|----------------2-4---------4---|
|0-----------------------4---0---|2-------------------------------|

 |    |    |    |    |    |    |    |
|--------------------------------|--------------------------------|
|--------------------------------|----------------0-0-----0-------|
|0-------0---0-0-2-------2-------|4-------4---4-------------------|
|--------------------------------|--------------------------------|

 |    |    |    |    |    |    |    |
|--------------------------------|1-------1-------2-2-----2-------|
|2-------2-------4-------4-------|----2-----------------2---2-----|
|--------------------------------|----------------------------0---|
|----0---------------------------|--------------------------------|

 |    |    |    |    |    |    |    |
|----------------0h1-2---0-------|--------------------------------|
|----------------------------2p0-|--------------------------------|
|3-----------3-------------------|2-------------------------------|
|------3-0-3---------------------|--------------------------------|

 |    |    |    |    |    |    |    |
|--------------------------------|--------------------------------|
|--------2-----------------------|----------------2---2-----------|
|----------------2h4-2-----------|------------2-4-------------4---|
|0-----------------------4---0---|2-------------------------------|

 |    |    |    |    |    |    |    |
|--------------------------------|--------------------------------|
|----------------2---------------|------------2---4---2-----------|
|------------2-4-----4---2---4---|--------2h4-------------4---2---|
|4-------------------------------|2-------------------------------|

 |    |    |    |    |    |    |    |
|--------------------------------|------------7---7---------------|
|--------2-------------------2---|--------5h7---------7-------7---|
|--------------2-----2---4-------|5-----------------------5-------|
|0---------------4---------------|--------------------------------|

 |    |    |    |    |    |    |    |
|--------------------2---2-------|------------4---4-------4-------|
|------------2---4---------------|--------2-4-----------4-----4/0-|
|0-----0-4-------------------0---|2---2---------------------------|
|--------------------------------|--------------------------------|

 |    |    |    |    |    |    |    |
|--------------------------------|--------------------------------|
|--------------------------------|--------------------------------|
|4-------4-------4-4-----4-------|0---0---4---0---0---0---0-------|
|--------------4-------4-------4-|----------------------------0---|

 |    |    |    |    |    |    |    |
|--------------------------------|------------------------0h1-1p0-|
|------------------4---------4---|2h4-----------------------------|
|2-------2-------2---------------|----2---------------------------|
|--------------------------------|--------------------------------|

 |    |    |    |    |    |    |    |
|--------------------------------|--------------------------------|
|--------2-----------------------|--------------------2---2-------|
|----------------2h4-2-----------|----------------2h4---------4---|
|0-----------------------4---0---|2-------------------------------|

 |    |    |    |    |    |    |    |
|--------------------------------|--------------------------------|
|--------------------2---2-------|----4---4---------------2-------|
|--------------2-2h4---------4---|----------------2-4---------4---|
|4-------------------------------|2-------------------------------|

 |    |    |    |    |    |    |    |
|--------------------------------|--------------------------------|
|--------2-----------------------|--------------------2---2-------|
|----------------2h4-2-----------|----------------2-4---------4---|
|0-------------4---------4---0---|2-------------------------------|

 |    |    |    |    |    |    |    |
|--------------------------------|--------------------------2-----|
|--------------------------------|----------------0-------0---0---|
|0-----0-0-----0-2-------2-------|4---4---4---4-------------------|
|--------------------------------|--------------------------------|

 |    |    |    |    |    |    |    |
|--------------------------------|1-------1-------2-------2-------|
|2-------2---2-2-4-------4-------|----------------------2---2-----|
|--------------------------------|----------------------------0---|
|----0---------------------------|--------------------------------|

 |    |    |    |    |    |    |    |
|----------------0---2-2-0-------|--------------------------------|
|----------------------------0h2-|--------------------------4-5h6-|
|3-----------3-------------------|2-------------------------------|
|--------0-3---------------------|--------------------------------|

 |    |    |    |    |    |    |    |
|--------------------------------|--------------------------------|
|--------2-----------------------|--------------------2---2-------|
|--------------2-2h4-2-----------|----------------2-4---------4---|
|0-----------------------4---0---|2-------------------------------|

 |    |    |    |    |    |    |    |
|----------------0---2---0-------|--------------------------------|
|----------------------------2---|--------------------------------|
|3-----------3-------------------|2-------------------------------|
|------3-0-3---------------------|--------------------------------|

 |    |    |    |    |    |    |    |
|--------------------------------|--------------------------------|
|--------------------------------|--------------------2---2-------|
|----------------2-4-2-----------|----------------2-4---------4---|
|0-----------------------4---0---|2-------------------------------|

 |    |    |    |    |    |    |    |
|--------------------------------|--------------------------------|
|--------------------2---2-------|------------2---2h4-2-----------|
|----------------2-4---------4---|--------2-4-------------4---2---|
|4-------------4-----------------|2-------------------------------|

 |    |    |    |    |    |    |    |
|--------------------------------|--------------------------------|
|--------2-----------------------|----------------2---2-----------|
|--------------2-2h4-2-----------|------------2h4---------4---2---|
|0-----------------------4---0---|2-------------------------------|

 |    |    |    |    |    |    |    |
|--------------------------------|--------------------------------|
|--------------------2---2-------|----4---------------2---2-------|
|----------------2h4---------4---|----------------2h4-------------|
|4-------------------------------|2---------------------------4---|

 |    |    |    |    |    |    |    |
|--------------------------------|--------------------------------|
|--------2-----------------------|--------4-----2-----2---2-------|
|----------------4---2-----------|----------------2h4---------4---|
|0-----------------------4---0---|2-------------------------------|

 |    |    |    |    |    |    |    |
|--------------------------------|--------------------------------|
|--------------------2---2-------|--------------------2---2-------|
|----------------2h4---------4---|----------------2h4---------4---|
|4-------------4-----------------|2-------2-----------------------|

 |    |    |    |    |    |    |    |
|--------------------------------|--------------------------------|
|----------------2---------------|--------------------2---2-------|
|--------------------4---2-------|----------------2h4---------4---|
|0-------0-------------------4---|2-------2-----------------------|

 |    |    |    |    |    |    |    |
|--------------------------------|------------------------4---6---|
|--------------------2---2-------|------------2---4---6-----------|
|----------------2h4---------4---|--------4-----------------------|
|4-------4-----------------------|2-------------------------------|

 |    |    |    |    |    |    |    |
|---------------------f a d i n g . . . . .-----------------------|
|----2---------------------------|--------------------2---2-------|
|--------4-------2-----------4---|--------4-------2h4---------4---|
|0-------------4-----4---0-------|2-------------------------------|

Almost there ...

Sign in to get your own page with links to favourite songs and more. You are just one click away...

Login with Facebook Login with Google