Log in

One click and you are in

Login with Facebook Login with Google

Why sign up and log in

Guitar Tabs Explorer
Allman Brothers bass tabs for In memory of elizabeth reed

In Memory Of Elizabeth Reed bass tab by Allman Brothers

Allman Brothers bass tabs for In memory of elizabeth reed

Bass tabs with lyrics

Album: Beginnings
Tabbed by: Duffy (Yerracmij@aol.com)


Intro Deal- 7x I belive:
G|--------------------------
D|----------5-7--7-----7----
A|--0-3-5-7--------5-5---5-0
E|--------------------------

Eighth Time Walk:
G|-----------------------5---9-7-4-5-7-5----
D|----------5-7--7-7---7---7-------------7--
A|--0-3-5-7----------5---------------------7
E|------------------------------------------

Do That Set Again Then The New Walk Is Like This:
G|-----------------------5---9-7-4-5-7-9-5---4-5-4--------
D|----------5-7--7-7---7---7---------------7-------5---5--
A|--0-3-5-7----------5-------------------------------7---7
E|--------------------------------------------------------

Next Deal:
G|---------------8-----
D|----------7-10---10-7
A|------6-9------------
E|--5-8----------------

Next Cool Walk (twice):
G|------------4------------------------4--
D|----------5---7-5------------------5---5
A|--------7---------7-5------------7------
E|--5-5-8---------------8-5--5-5-8--------

Then Same Pattern Starting On E-8th (once):
G|--------------7-----------------------------7--
D|------------8---10-8----------------------8---8
A|---------10----------10-8--------------10------
E|--8-8-11------------------11-5--8-8-11---------

Then Play "Next Cool..." Once, Then Somthing Like This:
G|-------------       ---------------
D|--------7/9-7 4 Times,  --7-5----------
A|------7------ Then Walk: ------7-6-5----
E|--5-8--------       ------------8-5

Now Carry This Till The End And Feel Free To Jam:
G|------------4------        ------------4-5-7
D|----------5---7-5-7 Toss This  ----------5------
A|--0-0-5-7---------- In Every So --0-0-5-7--------
E|------------------- Often:    -----------------

This song is awesome and just killer to jam on, it was the first
tough song I learned...I'm only 15. Ummm, I guess I might as well
request anything tabbed off of Skarmegeddon3. Don't sue me &
please send me any corrections (my first tab!)
	~Duffy (Yerracmij@aol.com)
Album: Beginnings
Tabbed by: Duffy (Yerracmij@aol.com)

Intro Deal- 7x I belive:
G|--------------------------
D|----------5-7--7-----7----
A|--0-3-5-7--------5-5---5-0
E|--------------------------

Eighth Time Walk:
G|-----------------------5---9-7-4-5-7-5----
D|----------5-7--7-7---7---7-------------7--
A|--0-3-5-7----------5---------------------7
E|------------------------------------------

Do That Set Again Then The New Walk Is Like This:
G|-----------------------5---9-7-4-5-7-9-5---4-5-4--------
D|----------5-7--7-7---7---7---------------7-------5---5--
A|--0-3-5-7----------5-------------------------------7---7
E|--------------------------------------------------------

Next Deal:
G|---------------8-----
D|----------7-10---10-7
A|------6-9------------
E|--5-8----------------

Next Cool Walk (twice):
G|------------4------------------------4--
D|----------5---7-5------------------5---5
A|--------7---------7-5------------7------
E|--5-5-8---------------8-5--5-5-8--------

Then Same Pattern Starting On E-8th (once):
G|--------------7-----------------------------7--
D|------------8---10-8----------------------8---8
A|---------10----------10-8--------------10------
E|--8-8-11------------------11-5--8-8-11---------

Then Play "Next Cool..." Once, Then Somthing Like This:
G|-------------       ---------------
D|--------7/9-7 4 Times,  --7-5----------
A|------7------ Then Walk: ------7-6-5----
E|--5-8--------       ------------8-5

Now Carry This Till The End And Feel Free To Jam:
G|------------4------        ------------4-5-7
D|----------5---7-5-7 Toss This  ----------5------
A|--0-0-5-7---------- In Every So --0-0-5-7--------
E|------------------- Often:    -----------------

This song is awesome and just killer to jam on, it was the first
tough song I learned...I'm only 15. Ummm, I guess I might as well
request anything tabbed off of Skarmegeddon3. Don't sue me &
please send me any corrections (my first tab!)
	~Duffy (Yerracmij@aol.com)

Almost there ...

Sign in to get your own page with links to favourite songs and more. You are just one click away...

Login with Facebook Login with Google