Log in

One click and you are in

Login with Facebook Login with Google

Why sign up and log in

Guitar Tabs Explorer
Allie X bass tabs for Susie save your love

Bass tabs

Tuning: Standard (E A D G)


Main Riff plays in the verse and chorus, with occasional variation in the verse.


Main Riff:

G|------------------------|-------------------------|-----------------------|---------------3/5-3-|
D|------------------------|-----------------1/3-1---|-1-1--1-1--1-1--1-1----|-1-1--1-1--1-1-------|
A|-1-1--1-1--1-1--1-1-3-4-|-----------------------4-|-------------------4-1-|---------------------|
E|------------------------|--1-1--1-1--1-1----------|-----------------------|---------------------|


Main Riff Variant:

G|------------------------|-------------------------|------------------3-8-|-----------------3/5-3-|
D|------------------------|-----------------1/3-1---|-1-1--1-1--1-1--1-----|-0-1-1--1-1--1-1-------|
A|-1-1--1-1--1-1--1-1-3-4-|-----------------------4-|----------------------|-----------------------|
E|------------------------|--1-1--1-1--1-1----------|----------------------|-----------------------|


Pre Chorus:

G|-------------|-----------|
D|-------------|-----3-----|
A|-4---4---3---|-3-------4-|
E|-------------|-----------|



************************************

| /  Slide up

************************************

ⓘ Bass guitar tab for 'Susie Save Your Love' by Allie X, a female synthpop artist from Los Angeles. Allie X was born in 1985. Allie X is known for her happy electronic music.

Almost there ...

Sign in to get your own page with links to favourite songs and more. You are just one click away...

Login with Facebook Login with Google