Log in

One click and you are in

Login with Facebook Login with Google

Why sign up and log in

Guitar Tabs Explorer
Allie X bass tabs for Devil i know

Bass tabs

Tuning: Standard (E A D G)


Intro:

G|---------------|---------------|---------------|---------------|
D|---------------|---------------|---------------|---------------|
A|---------------|---------------|---------------|---------------|
E|---------------|---------------|---------------|---------------|



Verse 1:

G|----------------|-----------------|----------------|-----------------|----------------|
D|----------------|-----------------|----------------|-----------------|----------------|
A|------8-9-----8-|6-------/9---8---|------8-9-----8-|6-------/9---8---|------8-9-----8-|
E|6---------------|-----------------|6---------------|-----------------|6---------------|

G|-----------------|----------------|-----------------|---------------|---------------|
D|-----------------|----------------|-----------------|---------------|---------------|
A|6-------/9---8---|--------8-----8-|6-------/9---8---|---------------|---------------|
E|-----------------|6-----6---------|-----------------|6-----6-6----6-|6--------------|


Chorus:

G|----------------|-----------------|----------------|-----------------|
D|----------------|-----------------|----------------|-----------------|
A|------8-9-----8-|6-------/9-9-8---|------8-9-----8-|6-------/9-9-8---|
E|6---------------|-----------------|6---------------|-----------------|

G|----------------|-----------------|----------------|-----------------|
D|----------------|-----------------|----------------|-----------------|
A|------8-9-----8-|6-------/9-9-8---|--------8-----8-|6-------/9-9-8---|
E|6---------------|-----------------|6-----6---------|-----------------|


Post-Chorus:

G|---------------|---------------|---------------|---------------|
D|---------------|---------------|---------------|---------------|
A|---------------|---------------|---------------|---------------|
E|---------------|---------------|---------------|---------------|


Verse 2:

G|----------------|-----------------|----------------|-----------------|----------------|
D|----------------|-----------------|----------------|-----------------|----------------|
A|------8-9-----8-|6-------/9---8---|------8-9-----8-|6-------/9---8---|------8-9-----8-|
E|6---------------|-----------------|6---------------|-----------------|6---------------|

G|-----------------|----------------|-----------------|---------------|---------------|
D|-----------------|----------------|-----------------|---------------|---------------|
A|6-------/9---8---|--------8-----8-|6-------/9---8---|---------------|---------------|
E|-----------------|6-----6---------|-----------------|6-----6-6----6-|6--------------|


Chorus:

G|----------------|-----------------|----------------|-----------------|
D|----------------|-----------------|----------------|-----------------|
A|------8-9-----8-|6-------/9-9-8---|------8-9-----8-|6-------/9-9-8---|
E|6---------------|-----------------|6---------------|-----------------|

G|----------------|-----------------|----------------|-----------------|
D|----------------|-----------------|----------------|-----------------|
A|------8-9-----8-|6-------/9-9-8---|--------8-----8-|6-------/9-9-8---|
E|6---------------|-----------------|6-----6---------|-----------------|


Post-Chorus:

G|---------------|---------------|---------------|---------------|
D|---------------|---------------|---------------|---------------|
A|---------------|---------------|---------------|---------------|
E|---------------|---------------|---------------|---------------|

G|---------------|---------------|---------------|---------------|
D|---------------|---------------|---------------|---------------|
A|---------------|---------------|---------------|---------------|
E|---------------|---------------|---------------|---------------|


Chorus:

G|----------------|-----------------|----------------|-----------------|
D|----------------|-----------------|----------------|-----------------|
A|------8-9-----8-|6-------/9-9-8---|------8-9-----8-|6-------/9-9-8---|
E|----------------|-----------------|6---------------|-----------------|

G|----------------|-----------------|----------------|-----------------|
D|----------------|-----------------|----------------|-----------------|
A|------8-9-----8-|6-------/9-9-8---|--------8-----8-|6-------/9-9-8---|
E|6---------------|-----------------|6-----6---------|-----------------|


Outro:

G|---------------|---------------|---------------|---------------|
D|---------------|---------------|---------------|---------------|
A|---------------|---------------|---------------|---------------|
E|6--------------|---------------|---------------|---------------|


************************************

| /  Slide up

************************************
ⓘ Bass guitar tab for 'Devil I Know' by Allie X, a female synthpop artist from Los Angeles. Allie X was born in 1985. Allie X is known for her happy electronic music.

Almost there ...

Sign in to get your own page with links to favourite songs and more. You are just one click away...

Login with Facebook Login with Google