Log in

One click and you are in

Login with Facebook Login with Google

Why sign up and log in

Guitar Tabs Explorer
Lily Allen bass tabs for Not fair

Bass tabs

Lily Allen - Not Fair

Tabbed By Thineus (jcmeetsjc@hotmail.com)< any questions!

Intro
G------------------------|------------------------|
D------------------------|------------------------|
A--5--0--5--0--5--0--5--0|----3-----3-----3-----3-|
E------------------------|-1-----1-----1-----1----|
B------------------------|------------------------|

G------------------------|------------------------|
D------------------------|-3-----3-----3-----3----|
A--5--0--5--0--5--0--5--0|----3-----3-----3-----3-|
E------------------------|------------------------|
B------------------------|------------------------|

G------------------------|----------------------------|
D------------------------|----------------------------|
A--5--0--5--0--5--0--5--0|----3-----3-----3-----X-X-X-|
E------------------------|-1-----1-----1-----1--------|
B------------------------|----------------------------|


Verse        (Listen carefully for timing)
G---------------------------|--------------------------|
D---------------------------|-3-----3-----3-----3-3--3-|
A--5--0--5--0--5--0--5-5-0-5|----3-----3-----3------3--|
E---------------------------|--------------------------|
B---------------------------|--------------------------| repeat twice second time play this

fill

Fill
G--------------|
D--------------|
A---8--7--5--3-|
E--------------|
B--------------|


Chorus (again timing)
G-------------|-------------|-------------|-------------|
D-------------|-------------|-------------|-------------|
A-------------|-1-----1-1--1|-------------|-3-----3-3--3|
E-3-----3-3--3|----1------1-|-1-----1-1--1|----3------3-|
B----3------3-|-------------|----1------1-|-------------|

G-------------|-------------|-------------|-------------|
D-------------|-------------|-------------|-------------|
A-------------|-1-----1-1--1|-3-----3-3--3|-3-----3-3--3|
E-3-----3-3--3|----1------1-|----3------3-|----3------3-|
B----3------3-|-------------|-------------|-------------|

Play chorus twice.

Then play the first two sections of the Intro before repeating the verse and chorus.

Almost there ...

Sign in to get your own page with links to favourite songs and more. You are just one click away...

Login with Facebook Login with Google