Log in

One click and you are in

Login with Facebook Login with Google

Why sign up and log in

Guitar Tabs Explorer
Allah Las guitar tabs for Sacred sands

Guitar tabs with lyrics

Tuning: Standard (E A D G B E)


Standard tuning.
Intro:

Strum along with the song and take turns arpegiating the high and low stings for the intro.

e|--4--4--4--4--4--4------4--4--4--4--4--4-----------------|
B|--5--5--5--5--5--5------5--5--5--5--5--5-----------------|
G|--6--6--6--6--6--6------6--6--6--6--6--6-----------------|
D|--6--6--6--6--6--6--6---6--6--6--6--6--6--6--------------|  x 2
A|--4--4--4--4--4--4------4--4--4--4--4--4----4------------|
E|---------------------------------------------------------|
    A chord diagramC#C#

End on a quick 3-stroke strum into the verse
0:08
e|---4-4-4-----------------|
B|---5-5-5-----------------|
G|---6-6-6-----------------|
D|---6-6-6-----------------|
A|---4-4-4-----------------|
E|-------------------------|


Chorus:

I am going to omit the strum patterns here for the chords.
0:09
e|----4------0-------------------4------4---2----------|
B|----5------0-------------------4------5---2----------|
G|----6------1-------------------5------6---3----------|
D|----6------2----4h6--4h6-------6------6---4----------|  x 4
A|----4------2-------------------6------4---4----------|
E|-----------0-------------4-----4----------2----------|
      A chord diagramC#C#     A chord diagramE MajorE                   A chord diagramG#G#     A chord diagramC#C#  A chord diagramF#F#

This transitions you into the bridge (techincally play this 3 times, but one set occurs in the last part of
the chorus)
0:37
e|-----4---2------------|
B|-----5---2------------|
G|-----6---3------------|
D|-----6---4------------|  x 2
A|-----4---4------------|
E|---------2------------|
       A chord diagramC#C#  A chord diagramF#F#

0:42
e|-4-----------------------|
B|-4-----------------------|
G|-5-----------------------|
D|-6---6-6-4-4-------------|
A|-6-----------7-7-6-6-4---|
E|-4-----------------------|
   A chord diagramG#G#
Love this descending little riff! I'm sure there's a term for this which I don't know...


Bridge:
0:45
e|--4--4--4--4-------|
B|--5--5--5--5-------|
G|--6--6--6--6-------|
D|--6--6--6--6-------| x 4
A|--4--4--4--4-------|
E|-------------------|
    A chord diagramC#C#
0:53
e|--5----2----7----2------|
B|--5----2----7----2------|
G|--6----2----7----2------|
D|--7----4----9----4------| x 3
A|--7----4----9----4------|
E|--5----2----7----2------|
    A chord diagramA majorA    A chord diagramF# minorF#m  A chord diagramB minorBm   A chord diagramF# minorF#m

1:15
e|--5----2----7----4------7---|
B|--5----2----7----4------7---|
G|--6----2----7----5------8---|
D|--7----4----9----6------9---|
A|--7----4----9----6------9---|
E|--5----2----7----4------7---|
    A chord diagramA majorA    A chord diagramF# minorF#m  A chord diagramB minorBm   A chord diagramG#G#     A chord diagramBB < This chord is only played once as you transition into the Chorus


1:24
Repeat Chorus:

Leading up to Solo:
1:53
e|--4--4--4--4-------|
B|--5--5--5--5-------|
G|--6--6--6--6-------|
D|--6--6--6--6-------| x 4
A|--4--4--4--4-------|
E|-------------------|
    A chord diagramC#C#


Solo Rhythm:
2:01
e|--4--4--4--4----0--0--0--0--|
B|--5--5--5--5----0--0--0--0--|
G|--6--6--6--6----1--1--1--1--| x 8
D|--6--6--6--6----2--2--2--2--|
A|--4--4--4--4----2--2--2--2--|
E|----------------0--0--0--0--|
    A chord diagramC#C#            A chord diagramE MajorE


Solo Lead:
2:01
e|-------------------------------------12~---14-14-14--16-16-16-|
B|--14-12-14-12------14-12-14-12--------------------------------|
G|--------------13---------------13-----------------------------|
D|--------------------------------------------------------------|
A|--------------------------------------------------------------|
E|--------------------------------------------------------------|

2:07
e|-------------------------------------------12-12-12--14-14-14-|
B|--14-12-14-12------14-12-14-12-------12~----------------------|
G|--------------13---------------13-----------------------------|
D|--------------------------------------------------------------|
A|--------------------------------------------------------------|
E|--------------------------------------------------------------|

2:16
e|-------------------------------------12~---14-14-14--16-16-16-|
B|--14-12-14-12------14-12-14-12--------------------------------|
G|--------------13---------------13-----------------------------|
D|--------------------------------------------------------------|
A|--------------------------------------------------------------|
E|--------------------------------------------------------------|

2:23
e|--------------------------------------------------------------|
B|--14-12-14-12------14-12-14-12-------12~----------------------|
G|--------------13---------------13----------16-13----13--------|
D|-------------------------------------------------16-----------|
A|--------------------------------------------------------------|
E|--------------------------------------------------------------|

2:30
e|---------------------------------------------------------------------------|
B|------------------------------------------12-------------------------------|
G|--11-11-11-11-11-11-11-11-11-11-11--11-13----13-11----11----11-------------|
D|---------------------------------------------------14----14----14-14-14----|
A|---------------------------------------------------------------------------|
E|---------------------------------------------------------------------------|

2:37
e|------------------------------------------------------------------------------|
B|------------------------------------------------------------------------------|
G|------------13--------------------------------13---------------13-------------|
D|--14-14/16------------------14-------------14----16---16-14-------16-14-16-14-|
A|--------------16---16-14-16----16-14-16---------------------16----------------|
E|------------------------------------------------------------------------------|

2:44
e|------------------------------------------------------------------------------|
B|------------------------------------------------------------------------------|
G|--13-11---------13-11---------13-11-------------13----------------------------|
D|--------14-11---------14-11---------14-11-14/16----16b18p14----------14----14-|
A|------------------------------------------------------------16-14-16----16----|
E|------------------------------------------------------------------------------|
*The timing is a little weird towards the last section of this part with the bend

2:52
e|---------------------------------------------------------------------------|
B|--------------------------17----17h19--19b21x3-17----17-19-21-21-21--------|
G|----------13h16-16--16/18----18-------------------18-----------------------|
D|----14-16------------------------------------------------------------------|
A|-16------------------------------------------------------------------------|
E|---------------------------------------------------------------------------|


3:00

Chorus:


3:18

Outro:

e|-4-----------------------4--4-|
B|-4-----------------------5--5-|
G|-5-----------------------6--6-|
D|-6---6-6-4-4-------------6--6-|
A|-6-----------7-7-6-6-4---4--4-|
E|-4----------------------------|
   A chord diagramG#G#                      A chord diagramC#C#


And there you have it! Hope this was helpful! Happy playing!


************************************

| h  Hammer-on
| ~  Vibrato
| /  Slide up
| p  Pull-off
| b  Bend
| x  Dead note

************************************

↓ Add and view comments below ↓

What do you think about this song and these tabs?

Add your comments, questions, rant or a thumbs up below.

Almost there ...

Sign in to get your own page with links to favourite songs and more. You are just one click away...

Login with Facebook Login with Google