Log in

One click and you are in

Login with Facebook Login with Google

Why sign up and log in

Guitar Tabs Explorer
All Time Low bass tabs for Therapy

Bass tabs

-------------------------------------------------------------------------------
			   Therapy - All Time Low
-------------------------------------------------------------------------------
95% accurate, with some riffs missing. for those who cannot see guitar pro tabs
enjoy~
Tabbed by: eiirish
Tuning:Drop D


Verse 2
G|----------------7-7-7-7-7-7-7-7-11-11-11-11-9-9-9-9-7-7-7-7-7-7-7-7--------|
D|---------------------------------------------------------------------------|
A|0-0-0-0-0-0-0-0------------------------------------------------------------|
D|---------------------------------------------------------------------------|

G|--------------------------------------------6-6h7p6-----6------------------|
D|----------------------------------------7-9---------7-9--------------------|
A|0-0-0-0----5-5-5-5----5h7-9-9--9-7-7--7------------------------------------|
D|---------------------------------------------------------------------------|

G|---------------------------------------------------------------------------|
D|---------------------------------------------------------------------------|
A|0-0-0-0----5-5-5-5----5h7-9-9--9-7-7--7-5-5-5-5/17-17-17-17----------------|
D|---------------------------------------------------------------------------|


Chorus 2
G|---------------------------------------------------------------------------|
D|---------------------------2-4-2---2-----------4-2-------------------------|
A|0--------------------------------4-----------------4-0-0-0-0-0-0-0-0-------|
D|-----2-2-2-2-2-2-2-2-4-4-4-----------0-0-0-0-0-----------------------------|

G|---------------------------------------------------------------------------|
D|------------------------------------------4-2------------------------------|
A|----------------------579---------------------4----------------------------|
D|2-2-2-2-2-2-2-2-4-4-4-----4-4-4-0-0-0-0-0----------------------------------|

Bridge  X2
G|---------------------------------------------------------------------------|
D|---------------------------------------------------------------------------|
A|2-2-2-2-2-2-2-2-0-0-0-0-0-0-0-0--------------------------------------------|
D|--------------------------------2-2-2-2-2-2-2-2/14-14-14-14-14-14-14-14----|


Chorus 3 (Bass comes in just before drums at 2.52) X2
G|---------------------------------------------------------------------------|
D|--------------------------------------2-4-2---2-----------4-2--------------|
A|0-0-0-0-0-0-0-0-----------------------------4----------------4-------------|
D|----------------2-2-2-2-2-2-2-2-4-4-4-----------0-0-0-0-0------------------|

G|---------------------------------------------------------------------------|
D|--------------------------------------2-4-2---2----------------------------|
A|0-0-0-0-0-0-0-0-----------------------------4------------------------------|
D|----------------2-2-2-2-2-2-2-2-4-4-4-----------0--------------------------|


Ending guitar riff
G|-----7----11--9--7~let-ring------------------------------------------------|
D|7--------------------------------------------------------------------------|
A|---------------------------------------------------------------------------|
D|---------------------------------------------------------------------------|


| / slide up
| \ slide down
| h hammer-on
| p pull-off
| ~ vibrato
| + harmonic
| x Mute note

Almost there ...

Sign in to get your own page with links to favourite songs and more. You are just one click away...

Login with Facebook Login with Google