Log in

One click and you are in

Login with Facebook Login with Google

Why sign up and log in

Guitar Tabs Explorer
All Time Low bass tabs for Stella

Bass tabs

Intro

G|-----------------|-----------------|-----------------|-----------------|
D|-----------------|-----------------|-----------------|-----------------|
A|-----------------|-----------------|-0---0-----0-0---|-0---0-----0-0---|
E|-1---1-----1-1---|-1---1-----1-1---|-----------------|-----------------|

G|-----------------|-----------------|-----------------|-----------------|
D|-----------------|-----------------|-----------------|-----2---3---5---|
A|-1---1-----1-1---|-1---1-----1-1---|-3---3-----3-3---|-3---------------|
E|-----------------|-----------------|-----------------|-----------------|
Verse 1

G|-----------------|-----------------|-----------------|-----------------|
D|-----------------|-----------------|-----------------|-----------------|
A|-----------------|-----------------|-5---5---5---5---|-5---5---5---5---|
E|-1---1---1---1---|-1---1---1---1---|-----------------|-----------------|

G|-----------------|-----------------|-----------------|-----------------|
D|-----------------|-----------------|-----------------|-----2---3---5---|
A|-1---1---1---1---|-1---1---1---1---|-3---3---3---3---|-3---------------|
E|-----------------|-----------------|-----------------|-----------------|

G|-----------------|-----------------|-----------------|-----------------|
D|-----------------|-----3---2-------|-----------------|-----3---5---7---|
A|-----------------|-------------3---|-5---5---5---5---|-5---------------|
E|-1---1---1---1---|-1---------------|-----------------|-----------------|

G|-----------------|-----------------|-----------------|-----------------|
D|-----------------|-------------3---|-----------------|-2-3-5-3-2-------|
A|-1---1---1---1---|-1---1---1-------|-3---3---3---3---|-----------5-3---|
E|-----------------|-----------------|-----------------|-----------------|

Chorus 1

G|-----------------|-----------------|-----------------|-----------------|
D|-----------------|-----------------|-----------------|-------------3---|
A|-----------------|-------------3---|-0---0-----0-0---|-0---0-----0-----|
E|-1---1-----1-1---|-1---1-----1-----|-----------------|-----------------|

G|-----------------|-----------------|-----------------|-----------------|
D|-----------------|-------------5---|-----------------|-----2---3---5---|
A|-1---1-----1-1---|-1---1-----1-----|-3---3-----3-3---|-3---------------|
E|-----------------|-----------------|-----------------|-----------------|

G|-----------------|-----------------|-----------------|-----------------|
D|-----------------|-----------------|-----------------|-----------------|
A|-----------------|-------------3---|-0---0-----0-0---|-0---0-----0-3---|
E|-1---1-----1-1---|-1---1-----1-----|-----------------|-----------------|

G|-----------------|-----------------|-----------------|-----------------|
D|-----------------|-----------------|-----------------|-----------------|
A|-5---5-----5-5---|-5---5-----5-5---|-----------------|-----------------|
E|-----------------|-----------------|-6---------------|-------------8\--|

After-Chorus 1

G|-----------------|-----------------|-----------------|-----------------|
D|-----------------|-----------------|-----------------|-------------3---|
A|-----------------|-----------------|-0---0-----0-0---|-0---0---0-------|
E|-1---1-----1-1---|-1---1-----1-1---|-----------------|-----------------|

G|-----------------|-----------------|-----------------|-3-2-------------|
D|-----------------|-------------5---|-----------------|-----5-3-2-3-----|
A|-1---1-----1-1---|-1---1-----1-----|-3---3-----3-3---|-------------3---|
E|-----------------|-----------------|-----------------|-----------------|


Verse 2

G|-----------------|-----------------|-----------------|-----------------|
D|-----------------|-----3---2-------|-----------------|-----3---5---7---|
A|-----------------|-------------3---|-5---5---5---5---|-5---------------|
E|-1---1---1---1---|-1---------------|-----------------|-----------------|

G|-----------------|-3---2-----------|-----------------|-----------------|
D|-----------------|---------5---3---|-----------------|-----2---3---5---|
A|-1---1---1---1---|-----------------|-3---3---3---3---|-3---------------|
E|-----------------|-----------------|-----------------|-----------------|

G|-----------------|-----------------|-----------------|-----------------|
D|-----------------|-----3---2-------|-----------------|-----------------|
A|-----------------|-------------3---|-5---5---5---5---|---------10\------|
E|-1---1---1---1---|-1---------------|-----------------|-----------------|

G|-----------------|-----------------|-----------------|-----------------|
D|-----------------|-----------------|-----------------|-2-3-5-3-5-3-2---|
A|-1---1---1---1---|-1---1---1---1---|-3---3---3---3---|---------------3-|
E|-----------------|-----------------|-----------------|-----------------|


Chorus 2

G|-----------------|-----------------|-----------------|-----------------|
D|-----------------|-----------------|-----------------|-------------3---|
A|-----------------|-------------3---|-0---0-----0-0---|-0---0-----0-----|
E|-1---1-----1-1---|-1---1-----1-----|-----------------|-----------------|

G|-----------------|-----------------|-----------------|-----------------|
D|-----------------|-------------5---|-----------------|-----2---3-------|
A|-1---1-----1-1---|-1---1-----1-----|-3---3-----3-3---|-3-----------3---|
E|-----------------|-----------------|-----------------|-----------------|

G|-----------------|-----------------|-----------------|-----------------|
D|-----------------|-----------------|-----------------|-----------------|
A|-----------------|-------------3---|-0---0-----0-0---|-0---0-----0-3---|
E|-1---1-----1-1---|-1---1-----1-----|-----------------|-----------------|

G|-----------------|-----------------|---------3-------|---------3-------|
D|-----------------|-----------------|-----------------|-----------------|
A|-5---5-----5-5---|-5---5-----5-5---|-1---1------1-1--|-1---1------1-1--|
E|-----------------|-----------------|-----------------|-----------------|


Bridge

G|-----------------|-----------------|-----------------|-----------------|
D|-----------------|-----------------|-----------------|-----------------|
A|-5---5---5---5---|-7---7---8---8---|-4---4---4---4---|-8---8---7---7---|
E|-----------------|-----------------|-----------------|-----------------|

G|-----------------|-----------------|-----------------|-----------------|
D|------------3----|-----------------|-----------------|-----------------|
A|-1---------------|-----------------|-3---------------|---------3---4---|
E|---------------1-|-----------------|------------1--1-|-----------------|

G|-----------------|-----------------|-----------------|-----------------|
D|-----------------|-----------------|-----------------|-----------------|
A|-5---5---5---5---|-7---7---8---8---|-4---4---4---4---|-8---8---7--7--7-|
E|-----------------|-----------------|-----------------|-----------------|

G|-----------------|-----------------|-----------------|-------------------------------------|
D|------------3----|-----------------|-----------------|-------------------------------------|
A|-1---------------|-----------------|-3---------------|-15-15-15-15-15-15-15-15-15-15-15-15-|
E|---------------1-|-----------------|-----------------|-------------------------------------|

G|-----------------|-----------------|-----------------|-----------------|
D|-----------------|-----------------|-----------------|-----------------|
A|-----------------|-----------------|-----------------|-----------------|
E|-13--------------|-----------------|-----------------|-----------------|


Chorus 3

G|-----------------|-----------------|-----------------|-----------------|
D|-----------------|-----------------|-----------------|-------------3---|
A|-----------------|-------------3---|-0---0-----0-0---|-0---0---0-------|
E|-1---1-----1-1---|-1---1-----1-----|-----------------|-----------------|

G|-----------------|-----------------|-----------------|-2-3-5-3-2-------|
D|-----------------|-------------5---|-----------------|-----------5-3-2-|
A|-1---1-----1-1---|-1---1-----1-----|-3---3-----3-3---|-----------------|
E|-----------------|-----------------|-----------------|-----------------|

G|-----------------|-----------------|-----------------|-----------------|
D|-----------------|-----------------|-----------------|-----------------|
A|-----------------|-------------3---|-0---0-----------|-0---------------|
E|-1---1-----1-1---|-1---1-----1-----|-----------------|-----------------|

G|-----------------|-----------------|-----------------|-----------------|
D|-----------------|-----------------|-----------------|-----------------|
A|-5---5-----5-5---|-5---5-----5-5---|-1---1---1---1---|-1---1---1--/8\--|
E|-----------------|-----------------|-----------------|-----------------|


Chorus 4

G|-----------------|-----------------|-----------------|-----------------|
D|-----------------|-----------------|-----------------|-----------------|
A|-----------------|-----------------|-0---0-----0-0---|-0---0---0---0---|
E|-1---1-----1-1---|-1---1-----1-1---|-----------------|-----------------|

G|-----------------|-----------------|-----------------|-----------------|
D|-----------------|-------------5---|-----------------|-2---3---5-------|
A|-1---1-----1-1---|-1---1-----1-----|-3---3-----3-3---|-------------3---|
E|-----------------|-----------------|-----------------|-----------------|

G|-----------------|-----------------|-----------------|-----------------|
D|-----------------|-----------------|-----------------|-----------------|
A|-----------------|-------------3---|-0---0-----0-0---|-0---0-----0-3---|
E|-1---1-----1-1---|-1---1-----1-----|-----------------|-----------------|

G|-----------------|-----------------|-----------------|-----------------|
D|-----------------|-----------------|-----------------|-----------------|
A|-5---5-----5-5---|-5---5-----5-5---|-1---------------|-----------------|
E|-----------------|-----------------|-----------------|-----------------|

Almost there ...

Sign in to get your own page with links to favourite songs and more. You are just one click away...

Login with Facebook Login with Google