Log in

One click and you are in

Login with Facebook Login with Google

Why sign up and log in

Guitar Tabs Explorer
All Time Low guitar tabs for Some kind of disaster

Guitar tabs with lyrics

Tuning: Standard (E A D G B E)


Intro:

e|----------------------|
B|----------------------|
G|--4--/9--4--/9\7------|  x2
D|----------------------|
A|----------------------|
E|--3--/8--0--/8\5------|

I'm a liar, I'm a cynic
I'm a sinner, I'm a saint
I'm a loser, I'm a critic
I'm the ghost of my mistakes

e|--------------------------------|
B|--------------------------------|
G|--4--/9--0-------4--/9--4--/9---|
D|------------4-------------------|
A|--------------------------------|
E|--3--/8--0--2----3--/8--0--/8---|

And it's all my fault that I'm still the one you want
So what are you after?
Some kind of disaster, yeah


Verse:
   A chord diagramG MajorG                              A chord diagramE minorEm              A chord diagramC majorC                  A chord diagramG MajorG
e|------------------------|    |---------------------------------------------------------------------|
B|------------------------|    |---------------------------------------------------------------------|
G|------------------------| x8 |---------------------------------------------------------------------|
G|------------------------|    |---------------------------------------------------------------------|
A|------------------------|    |------------------3-3-3-3-3-3-3-3-3----------------------------------|
E|---3-3-3-3-3-3-3-3------|    |--0-0-0-0-0-0-0-0-------------------3-3-3-3-3-3-3-3-3-3-3-3-3-3-3-3--|

   A chord diagramG MajorG                                             A chord diagramE minorEm              A chord diagramC majorC                  A chord diagramG MajorG
e|------------------------|    |---------------------------------------------------------------------|
B|------------------------|    |---------------------------------------------------------------------|
G|------------------------| x3 |---------------------------------------------------------------------|
G|------------------------|    |---------------------------------------------------------------------|
A|------------------------|    |---------------------------------3-3-3-3-3-3-3-3-3-------------------|
E|---3-3-3-3-3-3-3-3------|    |-2-2-2-2-2-2-2-2-0-0-0-0-0-0-0-0-------------------3-3-3-3-3-3-3-3---|

I woke up from a never-ending dream
I shut my eyes at 17
A chord diagramA majorA love's favorite moment in between
I felt the sun rise up and swallow me, yeah

Pre-chorus:

e|--0-------------|
B|-----3--1-------|
G|----------------|
D|----------------|
A|----------------|
E|----------------|

And it's all my fault that I'm still the one you want


Chorus:

e|--------------------------------------|
B|----------0--0------------0-----------|
G|------0h2------2------0h2---2--0------| x2
D|--0h2-------------0h2-----------------|
A|--------------------------------------|
E|--------------------------------------|

I'm a liar, I'm a cynic
I'm a sinner, I'm a saint
I'm a loser, I'm a critic
I'm the ghost of my mistakes

e|--------------------------------------------------------------------------|
B|--------------------------------------------------------------------------|
G|--------------------------------------------------------------------------|
D|--5-5-5-5-2-2-2-2--5-5-4-4-2-2-2-2--5-5-5-5-2-2-2-2-5-5-5-5-2-2-2-2-------|
A|--5-5-5-5-2-2-2-2--5-5-4-4-2-2-2-2--5-5-5-5-2-2-2-2-5-5-5-5-2-2-2-2-------|
E|--3-3-3-3-0-0-0-0--3-3-2-2-0-0-0-0--3-3-3-3-0-0-0-0-3-3-3-3-0-0-0-0-------|


And it's all my fault that I'm still the one you want
So what are you after?
Some kind of disaster


Verse:
   A chord diagramG MajorG                              A chord diagramE minorEm              A chord diagramC majorC                  A chord diagramG MajorG
e|------------------------|    |---------------------------------------------------------------------|
B|------------------------|    |---------------------------------------------------------------------|
G|------------------------| x8 |---------------------------------------------------------------------|
G|------------------------|    |---------------------------------------------------------------------|
A|------------------------|    |------------------3-3-3-3-3-3-3-3-3----------------------------------|
E|---3-3-3-3-3-3-3-3------|    |--0-0-0-0-0-0-0-0-------------------3-3-3-3-3-3-3-3-3-3-3-3-3-3-3-3--|

   A chord diagramG MajorG                                                 A chord diagramE minorEm              A chord diagramC majorC                  A chord diagramG MajorG
e|------------------------|    |-------------------------------------------------------------------------|
B|------------------------|    |-------------------------------------------------------------------------|
G|------------------------| x3 |-------------------------------------------------------------------------|
G|------------------------|    |-------------------------------------------------------------------------|
A|------------------------|    |-------------------------------------3-3-3-3-3-3-3-3-3-------------------|
E|---3-3-3-3-3-3-3-3------|    |-2-2-2-2-2-2-2-2-----0-0-0-0-0-0-0-0-------------------3-3-3-3-3-3-3-3---|


I crashed down from a high that felt so real
I never knew how much it would hurt to feel
You gotta hurt sometimes to learn to heal
You gotta get back up and learn to deal, yeah


Pre-chorus:

e|--0-------------|
B|-----3--1-------|
G|----------------|
D|----------------|
A|----------------|
E|----------------|

And it's all my fault that I'm still the one you want


Chorus:

e|--------------------------------------|
B|----------0--0------------0-----------|
G|------0h2------2------0h2---2--0------| x2
D|--0h2-------------0h2-----------------|
A|--------------------------------------|
E|--------------------------------------|

I'm a liar, I'm a cynic
I'm a sinner, I'm a saint
I'm a loser, I'm a critic
I'm the ghost of my mistakes

e|--------------------------------------------------------------------------|
B|--------------------------------------------------------------------------|
G|--------------------------------------------------------------------------|
D|--5-5-5-5-2-2-2-2--5-5-4-4-2-2-2-2--5-5-5-5-2-2-2-2-5-5-5-5-2-2-2-2-------|
A|--5-5-5-5-2-2-2-2--5-5-4-4-2-2-2-2--5-5-5-5-2-2-2-2-5-5-5-5-2-2-2-2-------|
E|--3-3-3-3-0-0-0-0--3-3-2-2-0-0-0-0--3-3-3-3-0-0-0-0-3-3-3-3-0-0-0-0-------|

And it's all my fault that I'm still the one you want
So what are you after?
Some kind of disaster


Bridge:

e|--3-------------|
B|-----3--1--0----|
G|----------------|
D|----------------|
A|----------------|
E|----------------|

(play twice:)
    A chord diagramG MajorG                                                              A chord diagramE minorEm
e|-3---3---3---3---3---3---3---3---3---3---3---3---3---3---3---3---0---0---0---0---|
B|---3---3---3---3---3---3---3---3---3---3---3---3---3---3---3---3---0---0---0---0-|
G|---------------------------------------------------------------------------------|
D|---------------------------------------------------------------------------------|
A|---------------------------------------------------------------------------------|
E|---------------------------------------------------------------------------------|
    A chord diagramC majorC               A chord diagramG MajorG
e|--0---0---0---0---3---3---3---3---3---3---3---3--------|
B|----1---1---1---1---3---3---3---3---3---3---3---3------|
G|-------------------------------------------------------|
D|-------------------------------------------------------|
A|-------------------------------------------------------|
E|-------------------------------------------------------|

Well I've sung this song a thousand times
I wore the crown, I sold the lie
I lived the life and paid for every crime, yeah
It's all downhill 'till it's a climb
Through blood and tears, but I don't mind
I'll just keep singing on and on and on


Pre-chorus:End of this pre-chorus also has power chords:

e|-------------------------------------------|
B|-------------------------------------------|
G|-------------------------------------------|
D|--2----0----5---4---2---0----0--4--5--7----|
A|--2----0----5---4---2---0------------------|
E|--0----2----3---2---0---2------------------|

And it's all my fault that I'm still the one you want, oh


Chorus:

e|--------------------------------------|
B|----------0--0------------0-----------|
G|------0h2------2------0h2---2--0------| x2
D|--0h2-------------0h2-----------------|
A|--------------------------------------|
E|--------------------------------------|

'Cause I'm a liar, I'm a cynic
I'm a sinner, I'm a saint
I'm a loser, I'm a critic
I'm the ghost of my mistakes

e|-----------------------------------|    |---------------------------------------|
B|-----------------------------------|    |---------------------------------------|
G|-----------------------------------| x2 |---------------------------------------|
D|--5-5-5-5-2-2-2-2--5-5-4-4-2-2-2-2-|    |-5-5-5-5-2-2-2-2-5-5-5-5-2-2-2-2-------|
A|--5-5-5-5-2-2-2-2--5-5-4-4-2-2-2-2-|    |-5-5-5-5-2-2-2-2-5-5-5-5-2-2-2-2-------|
E|--3-3-3-3-0-0-0-0--3-3-2-2-0-0-0-0-|    |-3-3-3-3-0-0-0-0-3-3-3-3-0-0-0-0-------|

And it's all my fault that I'm still the one you want
Yeah it's all my fault that I'm still the one you want
So what are you after?
Some kind of disaster


************************************

| /  Slide up
| \  Slide down
| h  Hammer-on

************************************

Other versions of Some Kind Of Disaster

Some kind of disasterChords
Some kind of disaster ukuleleChords

Almost there ...

Sign in to get your own page with links to favourite songs and more. You are just one click away...

Login with Facebook Login with Google