Log in

One click and you are in

Login with Facebook Login with Google

Why sign up and log in

Guitar Tabs Explorer
All Time Low bass tabs for No idea

Bass tabs

Verse 1A

  Bass at 0:25

Gb|-------------------------------------------------------------------------|
Db|-------------------------------------------------------------------------|
Ab|-------------------------------------------------------------------------|
Eb|---------------------------------------------------------14\-------------|
Verse 1B

Gb|-------------------------------------------------------------------------|
Db|-----------5-------------------------------5-----------------------------|
Ab|---------------------------------------------------------7-7-7-7---------|
Eb|-3-3-3-3-3---3-----------5-------3-3-3-3-3---3---------------------------|

Gb|-------------------------------------------------------------------------|
Db|-------------------------------------------------------------------------|
Ab|-5-5-5-5-5-5-5-------------------5-5-5-5-5-5-5---------------------------|
Eb|-------------------------5-------------------------------5-5-5-5---------|

Gb|-------------------------------------------------------------------------|
Db|-----------5-------------------------------5-----------------------------|
Ab|---------------------------------------------------------7-7-7-7---------|
Eb|-3-3-3-3-3---3-----------5-------3-3-3-3-3---3---------------------------|

Gb|-------------------------------------------------------------------------|
Db|-------------------------------------------------------------------------|
Ab|-5-5-5-5-5-5-5-------------------5-5-5-5-5-5-5-5-9-9-9-9-7-7-7-7---------|
Eb|-------------------------5-----------------------------------------------|


Pre-Chorus 1

Gb|-----------------------------7-------------------------------------------|
Db|-5---5-5---5-5---5-5-----5h7-----5---5-5---5-5---5-5---5-----------------|
Ab|-------------------------------------------------------------------------|
Eb|---------------------------------------------------------5-5-5-----------|

Gb|-------------------------------------------------------------------------|
Db|-----------------------------7-------------------------------------------|
Ab|-5---5-5---5-5---5-5-----5h7-----5---5-5---5-5---5-5---5-4-4-4-----------|
Eb|-------------------------------------------------------------------------|

Gb|-----------------------------7-------------------------------------------|
Db|-5---5-5---5-5---5-5-----5h7-----5---5-5---5-5---5-5---5-4-4-4-----------|
Ab|-------------------------------------------------------------------------|
Eb|-------------------------------------------------------------------------|

Gb|-------------------------------------------------------------------------|
Db|-----------------------------7-------------------------------------------|
Ab|-5---5-5---5-5---5-5---5-5h7-----9-9-9-9-9-9-9-9-17-17-17-17-17-17-17-17-|
Eb|-------------------------------------------------------------------------|

Chorus 1
                                        __
Gb|-------------------------------------------------------------------------|  |
Db|---------------------------------------------------------------------7---|  |
Ab|--------------------------------/10-10-10-10-10-10-10-10-----------7-----|  |
Eb|-3-3-3-3-3-3-3-3-3-3-3-3-3-3-3-3-------------------------5-5-5-5-5-------|  |
                                         | x2
Gb|-------------------------------------------------------------------------|  |
Db|-------------------------------------------------------------------------|  |
Ab|----------------/14-14-14-14-14-14-14-14-----------------5-5-5-5---------|  |
Eb|-7-7-7-7-7-7-7-7-------------------------2-2-2-2-2-2-2-2---------5-5-5-5-| __|

After-Chorus 1

Gb|-------------------------------------------------------------------------|
Db|---------------------------------------------------------------------7---|
Ab|--------------------------------/10-10-10-10-10-10-10-10-----------7-----|
Eb|-3-3-3-3-3-3-3-3-3-3-3-3-3-3-3-3-------------------------5-5-5-5-5-------|

Gb|-------------------------------------------------------------------------|
Db|-------------------------------------------------------------------------|
Ab|----------------/14-14-14-14-14-14-14-14-----------------5-5-5-5-4-4-4-4-|
Eb|-7-7-7-7-7-7-7-7-------------------------2-2-2-2-2-2-2-2-----------------|


Verse 2A

Gb|-------------------------------------------------------------------------|
Db|-------------------------------------------------------------------------|
Ab|-------------------------------------------------------------------------|
Eb|-3---3---3---3---3---3---3---3---3---3---3---3---3---3---5---0-----------|

Gb|-------------------------------------------------------------------------|
Db|-----------------------------7-------------------------------------------|
Ab|-5---5---5---5---5---5---5h7-----5---5---5---5---5---5-------------------|
Eb|---------------------------------------------------------5---5-----------|

Gb|-------------------------------------------------------------------------|
Db|-------------------------------------------------------------------------|
Ab|-------------------------------------------------------------------------|
Eb|-3---3---3---3---3---3---3---3---3---3---3---3---3---3---5---0-----------|

Gb|-------------------------------------------------------------------------|
Db|-----------------------------7-------------------------------------------|
Ab|-5---5---5---5---5---5---5h7-----5---5---5---5---9---9-------------------|
Eb|---------------------------------------------------------5---5-----------|


Verse 2B

  Repeat Verse 1B


Pre-Chorus 2

  Repeat Pre-Chorus 1


Chorus 2

  Repeat Chorus 1

After-Chorus 2

  Repeat After-Chorus 1


Bridge A

Gb|-------------------------------------------------------------------------|
Db|-------------------------------------------------------------------------|
Ab|-------------------------------------------------------------------------|
Eb|-3---3---3---3---3---3---3---3---3---3---3---3---3---3---5---0-----------|

Gb|-------------------------------------------------------------------------|
Db|-----------------------------7-------------------------------------------|
Ab|-5---5---5---5---5---5---5h7-----5---5---5---5---9---9-------------------|
Eb|---------------------------------------------------------5---5-----------|

Gb|-------------------------------------------------------------------------|
Db|-------------------------------------------------------------------------|
Ab|-------------------------------------------------------------------------|
Eb|-3---3---3---3---3---3---3---3---3---3---3---3---3---3---5---0-----------|

Gb|-------------------------------------------------------------------------|
Db|-----------------------------7-------------------------------------------|
Ab|-5---5---5---5---5---5---5h7-----9-9-9-9-9-9-9-9-17-17-17-17-17-17-17-17-|
Eb|-------------------------------------------------------------------------|


Chorus 3

  Repeat as Chorus 1


Bridge B

  Bass at 3:33

Gb|-------------------------------------------------------------------------|
Db|-----------------------------------------------------------14p12---------|
Ab|-------------------------------------------------------------------------|
Eb|-----------------------------------------------------------------14\-----|


Chorus 3
                                        __
Gb|-------------------------------------------------------------------------|  |
Db|---------------------------------------------------------------------7---|  |
Ab|--------------------------------/10-10-10-10-10-10-10-10-----------7-----|  |
Eb|-3-3-3-3-3-3-3-3-3-3-3-3-3-3-3-3-------------------------5-5-5-5-5-------|  |
                                         | x4
Gb|-------------------------------------------------------------------------|  |
Db|-------------------------------------------------------------------------|  |
Ab|----------------/14-14-14-14-14-14-14-14-----------------5-5-5-5---------|  |
Eb|-7-7-7-7-7-7-7-7-------------------------2-2-2-2-2-2-2-2---------5-5-5-5-| __|


Outro

Gb|-------------------------------------------------------------------------|
Db|---------------------------------------------------------------------7---|
Ab|--------------------------------/10-10-10-10-10-10-10-10-----------7-----|
Eb|-3-3-3-3-3-3-3-3-3-3-3-3-3-3-3-3-------------------------5-5-5-5-5-------|

Gb|-------------------------------------------------------------------------|
Db|-------------------------------------------------------------------------|
Ab|----------------/14-14-14-14-14-14-14-14-----------------5-5-5-5-4-4-4-4-|
Eb|-7-7-7-7-7-7-7-7-------------------------2-2-2-2-2-2-2-2-----------------|

Almost there ...

Sign in to get your own page with links to favourite songs and more. You are just one click away...

Login with Facebook Login with Google