Log in

One click and you are in

Login with Facebook Login with Google

Why sign up and log in

Guitar Tabs Explorer
All Time Low bass tabs for Circles

Bass tabs

Intro:
G|----------------------------------------------------|
D|----------------------------------------------------|
A|----------------------------------------------------|
D|--9--9-----9--9s----------9--9-----9--9s------------|

G|----------------------------------------------------|
D|----------------------------------------------------|
A|----------------------------------------------------|
D|--5--5-----5--5s----------5--5-----5--5s------------|

G|----------------------------------------------------|
D|----------------------------------------------------|
A|----------------------------------------------------|
D|--9--9-----9--9s------------------------------------|

G|----------------------------------------------------|
D|----------------------------------------------------|
A|----------------------------------------------------|
D|--5--5-----5--5--5-----5--5--5-----5--5--5----------|

G|----------------------------------------------------|
D|----------------------------------------------------|
A|----------------------------------------------------|
D|--9--9-----9--9--9-----9--9--9-----9--9--9----------|

G|----------------------------------------------------|
D|----------------------------------------------------|
A|----------------------------------------------------|
D|--5--5-----5--5--5-----5--5--5-----5--5--5----------|

G|----------------------------------------------------|
D|----------------------------------------------------|
A|--5-----5--5--5--5--5--5--5--5--5--5--5--5--5--5----|
D|--0-------------------------------------------------|

G|----------------------------------------------------|
D|--9--------7--------5-------------------------------|
A|-----------------------------9--------7h-5s-4h-5----|
D|----------------------------------------------------|


Verse 1:
G|----------------------------------------------------|
D|----------------------------------------------------|
A|----------------------------------------------------|
D|--9--9-----9--9-------------------------------------|

G|----------------------------------------------------|
D|----------------------------------------------------|
A|----------------------------------------------------|
D|--5--5-----5--5-------------------------------------|

G|----------------------------------------------------|
D|----------------------------------------------------|
A|----------------------------------------------------|
D|--0--0-----0--0-------------------------------------|

G|----------------------------------------------------|
D|----------------------------------------------------|
A|----------------------------------------------------|
D|--7--7-----7--7-------------------------------------|

G|----------------------------------------------------|
D|----------------------------------------------------|
A|----------------------------------------------------|
D|--9--9-----9--9-----9--9-----9--9-----12-12-12-12---|

G|----------------------------------------------------|
D|----------------------------------------------------|
A|----------------------------------------------------|
D|--5--5-----5--5-----5--5-----5--5-----5--5--5--5----|

G|----------------------------------------------------|
D|----------------------------------------------------|
A|----------------------------------------------------|
D|--0--0-----0--0-----0--0-----0--0-----12-12-12-12---|

G|----------------------------------------------------|
D|----------------------------------------------------|
A|----------------------------------------------------|
D|--7--7-----7--7-----7--7-----7--7-------------------|

G|----------------------------------------------------|
D|----------------------------------------------------|
A|----------------------------------------------------|
D|--9--9-----9--9-----9--9-----9--9-------------------|

G|----------------------------------------------------|
D|----------------------------------------------------|
A|----------------------------------------------------|
D|--5--5-----5--5-----5--5-----5--5-------------------|

G|----------------------------------------------------|
D|----------------------------------------------------|
A|----------------------------------------------------|
D|--0--0-----0--0-----0--0-----0--0-------------------|

G|----------------------------------------------------|
D|----------------------------------------------------|
A|----------------------------------------------------|
D|--7--7-----7--7-----7--7-----------5s----12s--------|


Pre-Chorus:
G|----------------------------------------------------|
D|----------------------------------------------------|
A|----------------------------------------------------|
D|--9-----9--9--9--9--9--9--9--9--9--9--9--9--9--9----|

G|----------------------------------------------------|
D|----------------------------------------------------|
A|----------------------------------------------------|
D|--0-----0--0--0--0--0--0--0--0--0--0--0--0--0--0----|

G|----------------------------------------------------|
D|----------------------------------------------------|
A|----------------------------------------------------|
D|--7-----7--7--7--7--7--7--7--7--7--7--7--7--7--7----|

G|----------------------------------------------------|
D|----------------------------------------------------|
A|----------------------------------------------------|
D|--5-----5--5--------5-----5--5--------5-------------|

G|----------------------------------------------------|
D|----------------------------------------------------|
A|----------------------------------------------------|
D|--9-----9--9--9--9--9--9--9--9--9--9--9--9--9--9----|

G|----------------------------------------------------|
D|----------------------------------------------------|
A|--------------------------7--7--5--5--4--4--5--5----|
D|--0-----0--0--0--0--0--0----------------------------|

G|----------------------------------------------------|
D|----------------------------------------------------|
A|----------------------------------------------------|
D|--7-----7--7--7--7--7--7--7--7--7--7--7--7--7--7----|

G|----------------------------------------------------|-------|
D|----------------------------------------------------|-------|
A|----------------------------------------------------|-------|
D|--5-----5--5--------5-----5--5--------5-------------|--0----|


Chorus:
G|----------------------------------------------------|
D|----------------------------------------------------|
A|----------------------------------------------------|
D|--0-----0--0--0--0--0--0--0-----0--0--0--0--0--0----|

G|----------------------------------------------------|
D|----------------------------------------------------|
A|----------------------------------------------------|
D|--5-----5--5--5--5--5--5--5-----5--5--5--5--5--5----|

G|----------------------------------------------------|
D|----------------------------------------------------|
A|----------------------------------------------------|
D|--9-----9--9--9--9--9--9--9-----9--9--9--9--9--9----|

G|--------------------------------------------7-------|
D|----------------------------------------------------|
A|----------------------------------------------------|
D|--5-----5--5--5--5--5--5--5-----5--5--5--5----------|

G|----------------------------------------------------|
D|----------------------------------------------------|
A|----------------------------------------------------|
D|--0-----0--0--0--0--0--0--0-----0--0--0--0--0--0----|

G|----------------------------------------------------|
D|----------------------------------------------------|
A|----------------------------------------------------|
D|--5-----5--5--5--5--5--5--5-----5--5--5--5--5--5----|

G|----------------------------------------------------|
D|----------------------------------------------------|
A|----------------------------------------------------|
D|--9-----9--9--9--9--9--9--9-----9--9--9--9--9--9----|

G|----------------------------------------------------|-------|
D|----------------------------------------------------|-------|
A|----------------------------------------------------|-------|
D|--5-----5--5--5--5--5--5--5-----5--5--5--5--5--5----|--0----|


Verse 2:
G|----------------------------------------------------|
D|----------------------------------------------------|
A|----------------------------------------------------|
D|--9--9-----9--9-----9--9-----9--9-------------------|

G|----------------------------------------------------|
D|----------------------------------------------------|
A|----------------------------------------------------|
D|--5--5-----5--5-----5--5-----5--5-------------------|

G|----------------------------------------------------|
D|----------------------------------------------------|
A|----------------------------------------------------|
D|--0--0-----0--0-----0--0-----0--0-------------------|

G|----------------------------------------------------|
D|----------------------------------------------------|
A|--------------------------------------4h-5--5h-0----|
D|--7--7-----7--7-----7--7-----7--7-------------------|

G|----------------------------------------------------|
D|----------------------------------------------------|
A|----------------------------------------------------|
D|--9--9-----9--9-----9--9-----9--9-------------------|

G|----------------------------------------------------|
D|----------------------------------------------------|
A|----------------------------------------------------|
D|--5--5-----5--5-----5--5-----5--5-------------------|

G|----------------------------------------------------|
D|----------------------------------------------------|
A|----------------------------------------------------|
D|--0--0-----0--0-----0--0-----0--0-------------------|

G|----------------------------------------------------|
D|----------------------------------------------------|
A|----------------------------------------------------|
D|--7--7-----7--7-----7--7----------------------------|


Pre-Chorus:
G|----------------------------------------------------|
D|----------------------------------------------------|
A|----------------------------------------------------|
D|--9-----9--9--9--9--9--9--9--9--9--9--9--9--9--9----|

G|----------------------------------------------------|
D|----------------------------------------------------|
A|----------------------------------------------------|
D|--0-----0--0--0--0--0--0--0--0--0--0--0--0--0--0----|

G|----------------------------------------------------|
D|----------------------------------------------------|
A|----------------------------------------------------|
D|--7-----7--7--7--7--7--7--7--7--7--7--7--7--7--7----|

G|----------------------------------------------------|
D|----------------------------------------------------|
A|----------------------------------------------------|
D|--5-----5--5--------5-----5--5--------5-------------|

G|----------------------------------------------------|
D|----------------------------------------------------|
A|----------------------------------------------------|
D|--9-----9--9--9--9--9--9--9--9--9--9--9--9--9--9----|

G|----------------------------------------------------|
D|----------------------------------------------------|
A|--------------------------7--7--5--5--4--4--5--5----|
D|--0-----0--0--0--0--0--0----------------------------|

G|----------------------------------------------------|
D|----------------------------------------------------|
A|----------------------------------------------------|
D|--7-----7--7--7--7--7--7--7--7--7--7--7--7--7--7----|

G|----------------------------------------------------|-------|
D|----------------------------------------------------|-------|
A|----------------------------------------------------|-------|
D|--5-----5--5--------5-----5--5--------5-------------|--0----|


Chorus:
G|----------------------------------------------------|
D|----------------------------------------------------|
A|----------------------------------------------------|
D|--0-----0--0--0--0--0--0--0-----0--0--0--0--0--0----|

G|----------------------------------------------------|
D|----------------------------------------------------|
A|----------------------------------------------------|
D|--5-----5--5--5--5--5--5--5-----5--5--5--5--5--5----|

G|----------------------------------------------------|
D|----------------------------------------------------|
A|----------------------------------------------------|
D|--9-----9--9--9--9--9--9--9-----9--9--9--9--9--9----|

G|--------------------------------------------7-------|
D|----------------------------------------------------|
A|----------------------------------------------------|
D|--5-----5--5--5--5--5--5--5-----5--5--5--5----------|

G|----------------------------------------------------|
D|----------------------------------------------------|
A|----------------------------------------------------|
D|--0-----0--0--0--0--0--0--0-----0--0--0--0--0--0----|

G|----------------------------------------------------|
D|----------------------------------------------------|
A|----------------------------------------------------|
D|--5-----5--5--5--5--5--5--5-----5--5--5--5--5--5----|

G|----------------------------------------------------|
D|----------------------------------------------------|
A|----------------------------------------------------|
D|--9-----9--9--9--9--9--9--9-----9--9--9--9--9--9----|

G|----------------------------------------------------|
D|----------------------------------------------------|
A|----------------------------------------------------|
D|--5-----5--5--5--5--5--5--5-----5--5--5--5--5--5----|


Outro:
G|-------|----------------------------|
D|-------|----------------------------|
A|-------|----------------------------|
D|--0----|--0--------------------0----| 2x

Almost there ...

Sign in to get your own page with links to favourite songs and more. You are just one click away...

Login with Facebook Login with Google