Log in

One click and you are in

Login with Facebook Login with Google

Why sign up and log in

Guitar Tabs Explorer
The All American Rejects tabs for The wind blows

Guitar tabs

The All American Rejects – The Wind Blows
Tabbed By Roland Beltran


Pre-Chorus
You're so impossible that I should sign a waiver

E------------------------------|
B------------------------------|
G--------------13s14-13s14-----|
D--------------XXXXXXXXXXX-----|
A--------------11s12-11s12-----|
E--------------XXXXXXXXXXX-----|

1st chorus
E-----------15--------------12—10s7--------7------8----------------|
B-------13-----17--------12--------8-----8------9------------------|
G---12----------------9-------------9--9------10---s9--------------|
D------------------------------------------------------------------|
A------------------------------------------------------------------|
E------------------------------------------------------------------|

2nd chorus
E-----------15--------------12—10s7--------7------8----------------|
B-------13-----17--------12--------8-----8------9------------------|
G---12----------------9-------------9--9------10-------------------|
D------------------------------------------------------------------|
A------------------------------------------------------------------|
E------------------------------------------------------------------|

E-----------15--------------15—10s7--------7------8----------------|
B-------13-----17--------12--------8-----8------9------------------|
G---12----------------9-------------9--9------10-------------------|
D------------------------------------------------------------------|
A------------------------------------------------------------------|
E------------------------------------------------------------------|

3rd Chorus
E-----------15--------------12—10s7--------7------8----------------|
B-------13-----17--------12--------8-----8------9------------------|
G---12----------------9-------------9--9------10-------------------|
D------------------------------------------------------------------|
A------------------------------------------------------------------|
E------------------------------------------------------------------|

E-----------15--------------15—10s7--------7------8----------------|
B-------13-----17--------12--------8-----8------9------------------|
G---12----------------9-------------9--9------10-------------------|
D------------------------------------------------------------------|
A------------------------------------------------------------------|
E------------------------------------------------------------------|

E-----------15--------------15—10s7--------12------13--------------|
B-------13-----17--------12--------8-----8------9------------------|
G---12----------------9-------------9--9------10-------------------|
D------------------------------------------------------------------|
A------------------------------------------------------------------|
E------------------------------------------------------------------|

Other versions of The Wind Blows

The wind blowsChords
The wind blows (Ver. 2)Chords

Almost there ...

Sign in to get your own page with links to favourite songs and more. You are just one click away...

Login with Facebook Login with Google