Log in

One click and you are in

Login with Facebook Login with Google

Why sign up and log in

Guitar Tabs Explorer
The All American Rejects bass tabs for Swing swing

Bass tabs

BASS TAB
Song Name: Swing Swing

Tabbed by: Alien Shirin

e-mail: iwasborn2killu@aol.com
type "TAB" in subject line

i dont really play bass, but oh well.

wen organ comes out, start playin:
g----------------------------------------------------------------------
d----------------------------------------------------------------------
a----------------------------------------------------------------------
E---3-3-3-3-3-3-3-3--3-3-3-3-3-3-3-3--0-0-0-0-0-0-0-0--8-8-8-8-8-8-8-8-
Days swiftly come .......

g----------------------------------------------------------------------
d----------------------------------------------------------------------
a----------------------------------------------------------------------
E---3-3-3-3-3-3-3-3--3-3-3-3-3-3-3-3--0-0-0-0-0-0-0-0--8-8-8-8-8-8-8-8-
The sun is .........

g----------------------------------------------------------------------
d----------------------------------------------------------------------
a----------------------------------------------------------------------
E---3-3-3-3-3-3-3-3--3-3-3-3-3-3-3-3--0-0-0-0-0-0-0-0--8-8-8-8-8-8-8-8-
   Did you think ......

g----------------------------------------------------------------------
d----------------------------------------------------------------------
a----------------------------------------------------------------------
E---3-3-3-3-3-3-3-3--3-3-3-3-3-3-3-3--0-0-0-0-0-0-0-0--8-8-8-8-8-8-8-8-
   Do you know what ......

g----------------------------------------------------------------------
d----------------------------------------------------------------------
a----------------------------------------------------------------------
E----------------------------------------------------------------------
           I'll find someone new

g----------------------------------------------------------------------
d----------------------------------------------------------------------
a----------------------------------------------------------------------
E---3-3-3-3-3-3-3-3--2-2-2-2-2-2-2-2--0-0-0-0-0-0-0-0--8-8-8-8-8-8-8-8-
Swing Swing Swing from the .........

g----------------------------------------------------------------------
d----------------------------------------------------------------------
a----------------------------------------------------------------------
E---3-3-3-3-3-3-3-3--2-2-2-2-2-2-2-2--0-0-0-0-0-0-0-0--8-8-8-8-8-8-8-8-
   Can you  help me ............

g----------------------------------------------------------------------
d----------------------------------------------------------------------
a----------------------------------------------------------------------
E---3-3-3-3-3-3-3-3--3-3-3-3-3-3-3-3--0-0-0-0-0-0-0-0--8-8-8-8-8-8-8-8-
Wish cast into the sky ............

g----------------------------------------------------------------------
d----------------------------------------------------------------------
a----------------------------------------------------------------------
E---3-3-3-3-3-3-3-3--3-3-3-3-3-3-3-3--0-0-0-0-0-0-0-0--8-8-8-8-8-8-8-8-
The notes are old ..........

g----------------------------------------------------------------------
d----------------------------------------------------------------------
a----------------------------------------------------------------------
E---3-3-3-3-3-3-3-3--3-3-3-3-3-3-3-3--0-0-0-0-0-0-0-0--8-8-8-8-8-8-8-8-
   Did you think that ..........

g----------------------------------------------------------------------
d----------------------------------------------------------------------
a----------------------------------------------------------------------
E---3-3-3-3-3-3-3-3--3-3-3-3-3-3-3-3--0-0-0-0-0-0-0-0--8-8-8-8-8-8-8-8-
   Do you know what ........

g----------------------------------------------------------------------
d----------------------------------------------------------------------
a----------------------------------------------------------------------
E----------------------------------------------------------------------
           I'll find someone new

g----------------------------------------------------------------------
d----------------------------------------------------------------------
a----------------------------------------------------------------------
E---3-3-3-3-3-3-3-3--2-2-2-2-2-2-2-2--0-0-0-0-0-0-0-0--8-8-8-8-8-8-8-8-
Swing Swing Swing ........

g----------------------------------------------------------------------
d----------------------------------------------------------------------
a----------------------------------------------------------------------
E---3-3-3-3-3-3-3-3--2-2-2-2-2-2-2-2--0-0-0-0-0-0-0-0--8-8-8-8-8-8-8-8-
   Can you  help me ........

DURING SOLO:(u can do the 5/a as a 11 on E)
g----------------------------------------------------------------------
d----------------------------------------------------------------------
a--------------------5-5-5-5-5-5-5-5-----------------------------------
E---3-3-3-3-3-3-3-3-------------------0-0-0-0-0-0-0-0--8-8-8-8-8-8-8-8-

g----------------------------------------------------------------------
d----------------------------------------------------------------------
a--------------------5-5-5-5-5-5-5-5-----------------------------------
E---3-3-3-3-3-3-3-3-------------------0-0-0-0-0-0-0-0--8-8-8-8-8-8-8-8-

g----------------------------------------------------------------------
d----------------------------------------------------------------------
a----------------------------------------------------------------------
E----------------------------------------------------------------------
  Bury me   you thought ............................Carry me

g----------------------------------------------------------------------
d----------------------------------------------------------------------
a----------------------------------------------------------------------
E-------------8-8-8-8-8-8-8-8-8-8-8-8-8-8-8-8--------------------------
      Away   Away   Away...................!

g----------------------------------------------------------------------
d----------------------------------------------------------------------
a----------------------------------------------------------------------
E---3-3-3-3-3-3-3-3--2-2-2-2-2-2-2-2--0-0-0-0-0-0-0-0--8-8-8-8-8-8-8-8-
Swing Swing Swing ..........

g----------------------------------------------------------------------
d----------------------------------------------------------------------
a----------------------------------------------------------------------
E---3-3-3-3-3-3-3-3--2-2-2-2-2-2-2-2--0-0-0-0-0-0-0-0--8-8-8-8-8-8-8-8-
   Can you  .................

repeat till end...if u want the version WITH lyrics....e-mail me.

Other versions of Swing Swing

Swing swing (Ver. 2)Bass tabs

Almost there ...

Sign in to get your own page with links to favourite songs and more. You are just one click away...

Login with Facebook Login with Google