Log in

One click and you are in

Login with Facebook Login with Google

Why sign up and log in

Guitar Tabs Explorer
The All American Rejects bass tabs for Somedays gone

Somedays Gone bass tab by The All American Rejects

The All American Rejects bass tabs for Somedays gone

Bass tabs

The bass plays an important role in this song which makes it really fun to play
even though it's very simple.
Song has a double chorus so I labeled them as Part 1 and Part 2.
Standard tuning

Check out my bass cover of this song!

http://www.youtube.com/watch v=aQofeuuWSKI

Check out my channel for more bass covers!

http://www.youtube.com/user/chrisistheazn



Intro

G|-----------------------------------------------------------------------|
D|-----------------------------------------------------------------------|
A|-----------------------------------------------------------------------|
E|-2-2-2-2-2-2-2-2-2-2-2-2-2-2/9-9-2-2-2-2-2-2-2-2-2-2-2-2-2-2/9-9-------|


Verse 1

G|-----------------------------------------------------------------------|
D|-----------------------------------------------------------------------|
A|-9-9-9-9-9-9-9-9-9-9-9-9-9-9-9-9-4-4-4-4-4-4-4-4-4-4-4-4-4-4-4-4-------|
E|-----------------------------------------------------------------------|

G|-----------------------------------------------------------------------|
D|-----------------------------------------------------------------------|
A|-6-6-6-6-6-6-6-6-13-13-13-13-13-13-13-13-------------------------------|
E|-----------------------------------------------------------------------|

G|-----------------------------------------------------------------------|
D|-----------------------------------------------------------------------|
A|-9-9-9-9-9-9-9-9-9-9-9-9-9-9-9-9-4-4-4-4-4-4-4-4-4-4-4-4-4-4-4-4-------|
E|-----------------------------------------------------------------------|

G|-----------------------------------------------------------------------|
D|-----------------------------------------------------------------------|
A|-6-6-6-6-6-6-6-6-13-13-13-13-13-13-13-13-------------------------------|
E|-----------------------------------------------------------------------|


Chorus 1 Part 1

G|-----------------------------------------------------------------------|
D|-----------------------------------------------------------------------|
A|-2-2-2-2-2-2-2-2-2-2-2-2-2-2-2-2---------------------------------------|
E|---------------------------------2-2-2-2-2-2-2-2-2-2-2-2-2-2-2-2-------|

G|-----------------------------------------------------------------------|
D|-----------------------------------------------------------------------|
A|-2-2-2-2-2-2-2-2-2-2-2-2-2-2-2-2-----------------4-4-4-4-4-4-4-4-------|
E|---------------------------------2-2-2-2-2-2-2-2-----------------------|


Chorus 1 Part 2

G|-----------------------------------------------------------------------|
D|-----------------------------------------------------------------------|
A|-6-6-6-6-6-6-6-4-2-2-2-2-2-2-2-2-6-6-6-6-8-8-9-9-4-4-4-4-4-4-4---------|
E|---------------------------------------------------------------1-------|

After-Chorus

G|-----------------------------------------------------------------------|
D|-----------------------------------------------------------------------|
A|-----------------------1-1-2-2-2---------------------------------------|
E|-2-2-2-2-2-2-2-2-2-2-2-------------------------------------------------|


Verse 2

G|-----------------------------------------------------------------------|
D|-----------------------------------------------------------------------|
A|---------------------------------4h5-4h5-4-4-4-4-4-4-4-4-4-4-4-4-------|
E|-2-2-2-2-2-2-2-2-2-2-2-2-2-2-2-2---------------------------------------|

G|-----------------------------------------------------------------------|
D|-----------------------------------------------------------------------|
A|-6-6-6-6-9---9---1-1---1/13---13---------------------------------------|
E|-----------------------------------------------------------------------|

G|-----------------------------------------------------------------------|
D|-----------------------------------------------------------------------|
A|-9-9-9-11-9-9-9-9-9-9-9-11-9-9-9-9-4-4-4-6-4-4-4-4-4-4-4-6-4-4-4-4-----|
E|-----------------------------------------------------------------------|

G|-----------------------------------------------------------------------|
D|-----------------------------------------------------------------------|
A|-6-6-6-6-6-6-6-6-1-1-1-1-13-13-13-13-----------------------------------|
E|-----------------------------------------------------------------------|


Chorus 2 Part 1

G|---------------------------------------------------------------------------------|
D|---------------------------------------------------------------------------------|
A|-14-14-14-14-14-14-14-14-14-14-14-14-14-13-11------------------------------------|
E|------------------------------------------------2-2-2-2-2-2-2-2-2-2-2-2-2-2-2-2--|

G|---------------------------------------------------------------------------------|
D|---------------------------------------------------------------------------------|
A|-2-2-2-2-2-2-2-2/14-14-14-14-14-13-11-------------------4-4-4-4-4-4-4-4----------|
E|----------------------------------------2-2-2-2-2-2-2-2--------------------------|


Chorus 2 Part 2

G|-----------------------------------------------------------------------|
D|-----------------------------------------------------------------------|
A|-6-6-6-6-6-6-6-4-2-2-2-2-2-2-2-2-6-6-6-6-8-8-9-9-4-4-4-4-4-4-4---------|
E|---------------------------------------------------------------1-------|

After-Chorus

G|-----------------------------------------------------------------------|
D|-----------------------------------------------------------------------|
A|--------------------------/9-9-9------------------/9-9-9-9-9-9-9-------|
E|-2-2-2-2-2-2-2-2-2-2-2-2-2-------2-2-2-2-2-2-2-2-2---------------------|


Bridge

G|------------------------------------------------------------------------------------|
D|---------8-----8-9-----8------------------------------------------------------------|
A|-6-----6-----------------9-------6-----6--------------------------------------------|
E|-----------------------------------------6-----6-7-----6-2---2----------------------|

G|------------------------------------------------------------------------------------|
D|---------8-----8-9-----8------------------------------------------------------------|
A|-6-----6-----------------9-------11-11-11-11-11-11-11-11-13-13-13-13-13-13-13-13----|
E|------------------------------------------------------------------------------------|


Chorus 3 Part 2

G|------------------------------------------------------------------------------------|
D|------------------------------------------------------------------------------------|
A|-14-14-14-14-14-14-14-14-14-14-14-14-14-13-11---------------------------------------|
E|------------------------------------------------2-2-2-2-2-2-2-2-2-2-2-2-2-2-2-2-----|

G|------------------------------------------------------------------------------------|
D|------------------------------------------------------------------------------------|
A|-2-2-2-2-2-2-2-2-2-2-2-2-2-4-4-4-----------------4----------------------------------|
E|---------------------------------2-2-2-2-2-2-2-2------------------------------------|


Chorus 3 Part 2

G|-----------------------------------------------------------------------|
D|-----------------------------------------------------------------------|
A|-6-6-6-6-6-6-6-6-2-2-2-2-2-2-2-2-6-6-6-6-8-8-9-9-2-2-2-2-2-2-2-2-------|
E|-----------------------------------------------------------------------|

G|-----------------------------------------------------------------------|
D|-----------------------------------------------------------------------|
A|-6-6-6-6-6-6-6-6-4-4-4-4-4-4-4-4---------------------------------------|
E|-----------------------------------------------------------------------|


Outro

G|------------------------------------------------------------------------------|
D|------------------------------------------------------------------------------|
A|-----------------------1-1-2-2-2-----------------------1-1-2-2-2--------------|
E|-2-2-2-2-2-2-2-2-2-2-2-----------2-2-2-2-2-2-2-2-2-2-2------------------------|

G|------------------------------------------------------------------------------|
D|------------------------------------------------------------------------------|
A|---------------------------1-1-2-2-2---------------------------2-2-1-1-1------|
E|-2-2-2-2/14-14-14-14-2-2-2-----------2-2-2-2/14-14-14-14-2-2-2-----------2----|


| / slide up
| \ slide down
| h hammer-on
| p pull-off
| ~ vibrato
| + harmonic
| x Mute note

Almost there ...

Sign in to get your own page with links to favourite songs and more. You are just one click away...

Login with Facebook Login with Google