Log in

One click and you are in

Login with Facebook Login with Google

Why sign up and log in

Guitar Tabs Explorer
The All American Rejects bass tabs for Night drive

Night Drive bass tab - The All American Rejects

The All American Rejects bass tabs for Night drive

Bass tabs

Intro:
 G-----------------------------------|
 D-----------------------------------|
 A--1-1-111---------4-4-444----------|  x2
 E----------1-1-111---------4-4-444--|
  Verse 1:

 G---------------------------------------|
 D---------------------------------------|
 A--111111111111111-4444444--------------|
 E--------------------------4444444------|
                       x1
 G---------------------------------------|
 D---------------------------------------|
 A--111111111111111-4444444-6666666------|
 E---------------------------------------|

  Chorus :

 G-----------------------------------|
 D-----------------------------------|
 A--1-1-111---------4-4-444----------|  x2
 E----------1-1-111---------4-4-444--|

  Verse 2:

 G---------------------------------------------|
 D---------------------------------------------|   x2
 A---------------------------------------------|
 E-0/5-5555555--0000000--3333333--0000000------|

 G---------------------------------------|
 D---------------------------------------|
 A--111111111111111--4444444-------------|
 E---------------------------4444444-----|
                       x1
 G---------------------------------------|
 D---------------------------------------|
 A--111111111111111--4444444--6666666----|
 E---------------------------------------|


  Bridge :
  (right after guitar solo)
 G-------------------------------------------------|
 D-------------------------------------------------|
 A---------------------------------------33--------|  x1
 E--1\5-5-------5---------------77---55-----00-----|

  Ending :

 G--------------------------------------|
 D--------------------------------------|
 A--1-1-111---------4-4-444-------------|  x4
 E----------1-1-111---------4-4-444-----|

Almost there ...

Sign in to get your own page with links to favourite songs and more. You are just one click away...

Login with Facebook Login with Google