Log in

One click and you are in

Login with Facebook Login with Google

Why sign up and log in

Guitar Tabs Explorer
The All American Rejects bass tabs for Mona lisa

Mona Lisa bass tab - The All American Rejects

The All American Rejects bass tabs for Mona lisa

Bass tabs

Tuning: Standard

 come in at about 0:44 Chorus
G|---------------------------------------------------------------------------|
D|---------------------------------------------------------------------------|
A|---------------5555--3333--------------------------------------------------|
E|--33333333-----------------------------------------------------------------|

  Verse
G|---------------------------------------------------------------------------|
D|---------------------------------------------------------------------------|
A|---------5~---3~-----------------------------------------------------------|
E|---3~----------------------------------------------------------------------|


bridge
G|---------------------------------------------------------------------------|
D|---------------------------------------------------------------------------|
A|----------3~-----------5~--------------------------------------------------|
E|---0~------------3~--------------------------------------------------------|

Almost there ...

Sign in to get your own page with links to favourite songs and more. You are just one click away...

Login with Facebook Login with Google